  0
SECTION
  2
HEADER
  9
$ACADVER
  1
AC1027
  9
$ACADMAINTVER
 70
   105
  9
$DWGCODEPAGE
  3
ANSI_1252
  9
$COMMENTS
  1
File was created by Cadenas
  9
$LASTSAVEDBY
  1
psService
  9
$CUSTOMPROPERTYTAG
  1
NB
  9
$CUSTOMPROPERTY
  1
ECX 4029
  9
$CUSTOMPROPERTYTAG
  1
NN
  9
$CUSTOMPROPERTY
  1
Support base
  9
$CUSTOMPROPERTYTAG
  1
NT
  9
$CUSTOMPROPERTY
  1
Support base
  9
$CUSTOMPROPERTYTAG
  1
NBSYN
  9
$CUSTOMPROPERTY
  1
$CODE.
  9
$CUSTOMPROPERTYTAG
  1
LINA
  9
$CUSTOMPROPERTY
  1
ECX 4029
  9
$CUSTOMPROPERTYTAG
  1
CATALOG
  9
$CUSTOMPROPERTY
  1
Comepi
  9
$CUSTOMPROPERTYTAG
  1
CODE
  9
$CUSTOMPROPERTY
  1
ECX 4029
  9
$CUSTOMPROPERTYTAG
  1
DSCR
  9
$CUSTOMPROPERTY
  1
Support base
  9
$CUSTOMPROPERTYTAG
  1
MAT
  9
$CUSTOMPROPERTY
  1
Reinforced plastic
  9
$CUSTOMPROPERTYTAG
  1
COL
  9
$CUSTOMPROPERTY
  1
Black
  9
$CUSTOMPROPERTYTAG
  1
FIX
  9
$CUSTOMPROPERTY
  1
Hooking
  9
$CUSTOMPROPERTYTAG
  1
DEST
  9
$CUSTOMPROPERTY
  1
40x30
  9
$CUSTOMPROPERTYTAG
  1
SPE
  9
$CUSTOMPROPERTY
  1
8
  9
$CUSTOMPROPERTYTAG
  1
PNG
  9
$CUSTOMPROPERTY
  1
ecx_4029.png
  9
$CUSTOMPROPERTYTAG
  1
COMPANY
  9
$CUSTOMPROPERTY
  1
comepi
  9
$REQUIREDVERSIONS
160
                 0
  9
$INSBASE
 10
0.0
 20
0.0
 30
0.0
  9
$EXTMIN
 10
-14.9
 20
-19.75
 30
0.0
  9
$EXTMAX
 10
23.32237288135593
 20
20.25542372881356
 30
0.0
  9
$LIMMIN
 10
0.0
 20
0.0
  9
$LIMMAX
 10
420.0
 20
297.0
  9
$ORTHOMODE
 70
     0
  9
$REGENMODE
 70
     1
  9
$FILLMODE
 70
     1
  9
$QTEXTMODE
 70
     0
  9
$MIRRTEXT
 70
     1
  9
$LTSCALE
 40
1.0
  9
$ATTMODE
 70
     1
  9
$TEXTSIZE
 40
2.5
  9
$TRACEWID
 40
1.0
  9
$TEXTSTYLE
  7
Standard
  9
$CLAYER
  8
0
  9
$CELTYPE
  6
ByLayer
  9
$CECOLOR
 62
   256
  9
$CELTSCALE
 40
1.0
  9
$DISPSILH
 70
     0
  9
$DIMSCALE
 40
1.0
  9
$DIMASZ
 40
2.5
  9
$DIMEXO
 40
0.625
  9
$DIMDLI
 40
3.75
  9
$DIMRND
 40
0.0
  9
$DIMDLE
 40
0.0
  9
$DIMEXE
 40
1.25
  9
$DIMTP
 40
0.0
  9
$DIMTM
 40
0.0
  9
$DIMTXT
 40
2.5
  9
$DIMCEN
 40
2.5
  9
$DIMTSZ
 40
0.0
  9
$DIMTOL
 70
     0
  9
$DIMLIM
 70
     0
  9
$DIMTIH
 70
     0
  9
$DIMTOH
 70
     0
  9
$DIMSE1
 70
     0
  9
$DIMSE2
 70
     0
  9
$DIMTAD
 70
     1
  9
$DIMZIN
 70
     8
  9
$DIMBLK
  1

  9
$DIMASO
 70
     1
  9
$DIMSHO
 70
     1
  9
$DIMPOST
  1

  9
$DIMAPOST
  1

  9
$DIMALT
 70
     0
  9
$DIMALTD
 70
     3
  9
$DIMALTF
 40
0.03937007874016
  9
$DIMLFAC
 40
1.0
  9
$DIMTOFL
 70
     1
  9
$DIMTVP
 40
0.0
  9
$DIMTIX
 70
     0
  9
$DIMSOXD
 70
     0
  9
$DIMSAH
 70
     0
  9
$DIMBLK1
  1

  9
$DIMBLK2
  1

  9
$DIMSTYLE
  2
ISO-25
  9
$DIMCLRD
 70
     0
  9
$DIMCLRE
 70
     0
  9
$DIMCLRT
 70
     0
  9
$DIMTFAC
 40
1.0
  9
$DIMGAP
 40
0.625
  9
$DIMJUST
 70
     0
  9
$DIMSD1
 70
     0
  9
$DIMSD2
 70
     0
  9
$DIMTOLJ
 70
     0
  9
$DIMTZIN
 70
     8
  9
$DIMALTZ
 70
     0
  9
$DIMALTTZ
 70
     0
  9
$DIMUPT
 70
     0
  9
$DIMDEC
 70
     2
  9
$DIMTDEC
 70
     2
  9
$DIMALTU
 70
     2
  9
$DIMALTTD
 70
     3
  9
$DIMTXSTY
  7
Standard
  9
$DIMAUNIT
 70
     0
  9
$DIMADEC
 70
     0
  9
$DIMALTRND
 40
0.0
  9
$DIMAZIN
 70
     0
  9
$DIMDSEP
 70
    44
  9
$DIMATFIT
 70
     3
  9
$DIMFRAC
 70
     0
  9
$DIMLDRBLK
  1

  9
$DIMLUNIT
 70
     2
  9
$DIMLWD
 70
    -2
  9
$DIMLWE
 70
    -2
  9
$DIMTMOVE
 70
     0
  9
$DIMFXL
 40
1.0
  9
$DIMFXLON
 70
     0
  9
$DIMJOGANG
 40
0.7853981633974483
  9
$DIMTFILL
 70
     0
  9
$DIMTFILLCLR
 70
     0
  9
$DIMARCSYM
 70
     0
  9
$DIMLTYPE
  6

  9
$DIMLTEX1
  6

  9
$DIMLTEX2
  6

  9
$DIMTXTDIRECTION
 70
     0
  9
$LUNITS
 70
     2
  9
$LUPREC
 70
     4
  9
$SKETCHINC
 40
1.0
  9
$FILLETRAD
 40
0.0
  9
$AUNITS
 70
     0
  9
$AUPREC
 70
     0
  9
$MENU
  1
.
  9
$ELEVATION
 40
0.0
  9
$PELEVATION
 40
0.0
  9
$THICKNESS
 40
0.0
  9
$LIMCHECK
 70
     0
  9
$CHAMFERA
 40
0.0
  9
$CHAMFERB
 40
0.0
  9
$CHAMFERC
 40
0.0
  9
$CHAMFERD
 40
0.0
  9
$SKPOLY
 70
     0
  9
$TDCREATE
 40
2460938.667819989
  9
$TDUCREATE
 40
2460938.584486655
  9
$TDUPDATE
 40
2460938.667820162
  9
$TDUUPDATE
 40
2460938.584486829
  9
$TDINDWG
 40
0.0000000116
  9
$TDUSRTIMER
 40
0.0000000116
  9
$USRTIMER
 70
     1
  9
$ANGBASE
 50
0.0
  9
$ANGDIR
 70
     0
  9
$PDMODE
 70
     0
  9
$PDSIZE
 40
0.0
  9
$PLINEWID
 40
0.0
  9
$SPLFRAME
 70
     0
  9
$SPLINETYPE
 70
     6
  9
$SPLINESEGS
 70
     8
  9
$HANDSEED
  5
20D
  9
$SURFTAB1
 70
     6
  9
$SURFTAB2
 70
     6
  9
$SURFTYPE
 70
     6
  9
$SURFU
 70
     6
  9
$SURFV
 70
     6
  9
$UCSBASE
  2

  9
$UCSNAME
  2

  9
$UCSORG
 10
0.0
 20
0.0
 30
0.0
  9
$UCSXDIR
 10
1.0
 20
0.0
 30
0.0
  9
$UCSYDIR
 10
0.0
 20
1.0
 30
0.0
  9
$UCSORTHOREF
  2

  9
$UCSORTHOVIEW
 70
     0
  9
$UCSORGTOP
 10
0.0
 20
0.0
 30
0.0
  9
$UCSORGBOTTOM
 10
0.0
 20
0.0
 30
0.0
  9
$UCSORGLEFT
 10
0.0
 20
0.0
 30
0.0
  9
$UCSORGRIGHT
 10
0.0
 20
0.0
 30
0.0
  9
$UCSORGFRONT
 10
0.0
 20
0.0
 30
0.0
  9
$UCSORGBACK
 10
0.0
 20
0.0
 30
0.0
  9
$PUCSBASE
  2

  9
$PUCSNAME
  2

  9
$PUCSORG
 10
0.0
 20
0.0
 30
0.0
  9
$PUCSXDIR
 10
1.0
 20
0.0
 30
0.0
  9
$PUCSYDIR
 10
0.0
 20
1.0
 30
0.0
  9
$PUCSORTHOREF
  2

  9
$PUCSORTHOVIEW
 70
     0
  9
$PUCSORGTOP
 10
0.0
 20
0.0
 30
0.0
  9
$PUCSORGBOTTOM
 10
0.0
 20
0.0
 30
0.0
  9
$PUCSORGLEFT
 10
0.0
 20
0.0
 30
0.0
  9
$PUCSORGRIGHT
 10
0.0
 20
0.0
 30
0.0
  9
$PUCSORGFRONT
 10
0.0
 20
0.0
 30
0.0
  9
$PUCSORGBACK
 10
0.0
 20
0.0
 30
0.0
  9
$USERI1
 70
     0
  9
$USERI2
 70
     0
  9
$USERI3
 70
     0
  9
$USERI4
 70
     0
  9
$USERI5
 70
     0
  9
$USERR1
 40
0.0
  9
$USERR2
 40
0.0
  9
$USERR3
 40
0.0
  9
$USERR4
 40
0.0
  9
$USERR5
 40
0.0
  9
$WORLDVIEW
 70
     1
  9
$SHADEDGE
 70
     3
  9
$SHADEDIF
 70
    70
  9
$TILEMODE
 70
     1
  9
$MAXACTVP
 70
    64
  9
$PINSBASE
 10
0.0
 20
0.0
 30
0.0
  9
$PLIMCHECK
 70
     0
  9
$PEXTMIN
 10
1.000000000000000E+20
 20
1.000000000000000E+20
 30
1.000000000000000E+20
  9
$PEXTMAX
 10
-1.000000000000000E+20
 20
-1.000000000000000E+20
 30
-1.000000000000000E+20
  9
$PLIMMIN
 10
0.0
 20
0.0
  9
$PLIMMAX
 10
420.0
 20
297.0
  9
$UNITMODE
 70
     0
  9
$VISRETAIN
 70
     1
  9
$PLINEGEN
 70
     0
  9
$PSLTSCALE
 70
     1
  9
$TREEDEPTH
 70
  3020
  9
$CMLSTYLE
  2
Standard
  9
$CMLJUST
 70
     0
  9
$CMLSCALE
 40
20.0
  9
$PROXYGRAPHICS
 70
     1
  9
$MEASUREMENT
 70
     1
  9
$CELWEIGHT
370
    -1
  9
$ENDCAPS
280
     0
  9
$JOINSTYLE
280
     0
  9
$LWDISPLAY
290
     0
  9
$INSUNITS
 70
     4
  9
$HYPERLINKBASE
  1

  9
$STYLESHEET
  1

  9
$XEDIT
290
     1
  9
$CEPSNTYPE
380
     0
  9
$PSTYLEMODE
290
     1
  9
$FINGERPRINTGUID
  2
{333a677c-f86b-4dd3-af2f-136a60b8bf21}
  9
$VERSIONGUID
  2
{FAEB1C32-E019-11D5-929B-00C0DF256EC4}
  9
$EXTNAMES
290
     1
  9
$PSVPSCALE
 40
0.0
  9
$OLESTARTUP
290
     0
  9
$SORTENTS
280
   127
  9
$INDEXCTL
280
     0
  9
$HIDETEXT
280
     1
  9
$XCLIPFRAME
280
     2
  9
$HALOGAP
280
     0
  9
$OBSCOLOR
 70
   257
  9
$OBSLTYPE
280
     0
  9
$INTERSECTIONDISPLAY
280
     0
  9
$INTERSECTIONCOLOR
 70
   257
  9
$DIMASSOC
280
     2
  9
$PROJECTNAME
  1

  9
$CAMERADISPLAY
290
     0
  9
$LENSLENGTH
 40
50.0
  9
$CAMERAHEIGHT
 40
0.0
  9
$STEPSPERSEC
 40
2.0
  9
$STEPSIZE
 40
6.0
  9
$3DDWFPREC
 40
2.0
  9
$PSOLWIDTH
 40
5.0
  9
$PSOLHEIGHT
 40
80.0
  9
$LOFTANG1
 40
1.570796326794897
  9
$LOFTANG2
 40
1.570796326794897
  9
$LOFTMAG1
 40
0.0
  9
$LOFTMAG2
 40
0.0
  9
$LOFTPARAM
 70
     7
  9
$LOFTNORMALS
280
     1
  9
$LATITUDE
 40
37.795
  9
$LONGITUDE
 40
-122.394
  9
$NORTHDIRECTION
 40
0.0
  9
$TIMEZONE
 70
 -8000
  9
$LIGHTGLYPHDISPLAY
280
     1
  9
$TILEMODELIGHTSYNCH
280
     1
  9
$CMATERIAL
347
44
  9
$SOLIDHIST
280
     0
  9
$SHOWHIST
280
     1
  9
$DWFFRAME
280
     2
  9
$DGNFRAME
280
     2
  9
$REALWORLDSCALE
290
     1
  9
$INTERFERECOLOR
 62
   256
  9
$CSHADOW
280
     0
  9
$SHADOWPLANELOCATION
 40
0.0
  0
ENDSEC
  0
SECTION
  2
CLASSES
  0
CLASS
  1
ACDBDICTIONARYWDFLT
  2
AcDbDictionaryWithDefault
  3
ObjectDBX Classes
 90
        0
 91
        3
280
     0
281
     0
  0
CLASS
  1
VISUALSTYLE
  2
AcDbVisualStyle
  3
ObjectDBX Classes
 90
     4095
 91
        3
280
     0
281
     0
  0
CLASS
  1
MATERIAL
  2
AcDbMaterial
  3
ObjectDBX Classes
 90
     1153
 91
        3
280
     0
281
     0
  0
CLASS
  1
SCALE
  2
AcDbScale
  3
ObjectDBX Classes
 90
     1153
 91
        3
280
     0
281
     0
  0
CLASS
  1
TABLESTYLE
  2
AcDbTableStyle
  3
ObjectDBX Classes
 90
     4095
 91
        3
280
     0
281
     0
  0
CLASS
  1
MLEADERSTYLE
  2
AcDbMLeaderStyle
  3
ACDB_MLEADERSTYLE_CLASS
 90
     4095
 91
        3
280
     0
281
     0
  0
CLASS
  1
SUN
  2
AcDbSun
  3
SCENEOE
 90
     1153
 91
        3
280
     0
281
     0
  0
CLASS
  1
DICTIONARYVAR
  2
AcDbDictionaryVar
  3
ObjectDBX Classes
 90
        0
 91
        3
280
     0
281
     0
  0
CLASS
  1
CELLSTYLEMAP
  2
AcDbCellStyleMap
  3
ObjectDBX Classes
 90
     1152
 91
        3
280
     0
281
     0
  0
ENDSEC
  0
SECTION
  2
TABLES
  0
TABLE
  2
VPORT
  5
8
330
0
100
AcDbSymbolTable
 70
     1
  0
VPORT
  5
29
330
8
100
AcDbSymbolTableRecord
100
AcDbViewportTableRecord
  2
*Active
 70
     0
 10
0.0
 20
0.0
 11
1.0
 21
1.0
 12
4.25
 22
0.3016949152542452
 13
0.0
 23
0.0
 14
10.0
 24
10.0
 15
10.0
 25
10.0
 16
0.0
 26
0.0
 36
1.0
 17
0.0
 27
0.0
 37
0.0
 40
40.90545762711866
 41
0.9550314864122381
 42
50.0
 43
0.0
 44
0.0
 50
0.0
 51
0.0
 71
     0
 72
   100
 73
     1
 74
     3
 75
     0
 76
     0
 77
     0
 78
     0
281
     0
 65
     1
110
0.0
120
0.0
130
0.0
111
1.0
121
0.0
131
0.0
112
0.0
122
1.0
132
0.0
 79
     0
146
0.0
348
2F
 60
     3
 61
     5
292
     1
282
     1
141
0.0
142
0.0
 63
   250
361
5D
  0
ENDTAB
  0
TABLE
  2
LTYPE
  5
5
330
0
100
AcDbSymbolTable
 70
     3
  0
LTYPE
  5
14
330
5
100
AcDbSymbolTableRecord
100
AcDbLinetypeTableRecord
  2
ByBlock
 70
     0
  3

 72
    65
 73
     0
 40
0.0
  0
LTYPE
  5
15
330
5
100
AcDbSymbolTableRecord
100
AcDbLinetypeTableRecord
  2
ByLayer
 70
     0
  3

 72
    65
 73
     0
 40
0.0
  0
LTYPE
  5
16
330
5
100
AcDbSymbolTableRecord
100
AcDbLinetypeTableRecord
  2
Continuous
 70
     0
  3
Solid line
 72
    65
 73
     0
 40
0.0
  0
LTYPE
  5
70
330
5
100
AcDbSymbolTableRecord
100
AcDbLinetypeTableRecord
  2
Dashed
 70
     0
  3

 72
    65
 73
     2
 40
2.0
 49
1.0
 74
     0
 49
-1.0
 74
     0
  0
LTYPE
  5
1F3
330
5
100
AcDbSymbolTableRecord
100
AcDbLinetypeTableRecord
  2
Center
 70
     0
  3

 72
    65
 73
     4
 40
1.5
 49
0.45
 74
     0
 49
-0.5
 74
     0
 49
0.05
 74
     0
 49
-0.5
 74
     0
  0
ENDTAB
  0
TABLE
  2
LAYER
  5
2
330
0
100
AcDbSymbolTable
 70
     7
  0
LAYER
  5
10
330
2
100
AcDbSymbolTableRecord
100
AcDbLayerTableRecord
  2
0
 70
     0
 62
     7
  6
Continuous
370
    -3
390
F
347
46
348
0
  0
LAYER
  5
5E
330
2
100
AcDbSymbolTableRecord
100
AcDbLayerTableRecord
  2
AM_6
 70
     0
 62
    -2
  6
Continuous
370
    35
390
F
347
46
348
0
  0
LAYER
  5
71
330
2
100
AcDbSymbolTableRecord
100
AcDbLayerTableRecord
  2
AM_9
 70
     0
 62
     6
  6
Dashed
370
    25
390
F
347
46
348
0
  0
LAYER
  5
76
330
2
100
AcDbSymbolTableRecord
100
AcDbLayerTableRecord
  2
AM_0
 70
     0
 62
     7
  6
Continuous
370
    50
390
F
347
46
348
0
  0
LAYER
  5
1B3
330
2
100
AcDbSymbolTableRecord
100
AcDbLayerTableRecord
  2
AM_4
 70
     0
 62
     3
  6
Continuous
370
    25
390
F
347
46
348
0
  0
LAYER
  5
1F4
330
2
100
AcDbSymbolTableRecord
100
AcDbLayerTableRecord
  2
AM_7
 70
     0
 62
     7
  6
Center
370
    25
390
F
347
46
348
0
  0
LAYER
  5
1FD
330
2
100
AcDbSymbolTableRecord
100
AcDbLayerTableRecord
  2
2d ConnectionPoints
 70
     0
 62
     7
  6
Continuous
370
    50
390
F
347
46
348
0
  0
ENDTAB
  0
TABLE
  2
STYLE
  5
3
330
0
100
AcDbSymbolTable
 70
     1
  0
STYLE
  5
11
330
3
100
AcDbSymbolTableRecord
100
AcDbTextStyleTableRecord
  2
Standard
 70
     0
 40
0.0
 41
1.0
 50
0.0
 71
     0
 42
2.5
  3
txt
  4

  0
ENDTAB
  0
TABLE
  2
VIEW
  5
6
330
0
100
AcDbSymbolTable
 70
     0
  0
ENDTAB
  0
TABLE
  2
UCS
  5
7
330
0
100
AcDbSymbolTable
 70
     0
  0
ENDTAB
  0
TABLE
  2
APPID
  5
9
330
0
100
AcDbSymbolTable
 70
     1
  0
APPID
  5
12
330
9
100
AcDbSymbolTableRecord
100
AcDbRegAppTableRecord
  2
ACAD
 70
     0
  0
ENDTAB
  0
TABLE
  2
DIMSTYLE
  5
A
330
0
100
AcDbSymbolTable
 70
     1
100
AcDbDimStyleTable
  0
DIMSTYLE
105
27
330
A
100
AcDbSymbolTableRecord
100
AcDbDimStyleTableRecord
  2
ISO-25
 70
     0
 41
2.5
 42
0.625
 43
3.75
 44
1.25
 73
     0
 74
     0
 77
     1
 78
     8
140
2.5
141
2.5
143
0.03937007874016
147
0.625
171
     3
172
     1
178
     0
271
     2
272
     2
274
     3
278
    44
283
     0
284
     8
340
11
  0
ENDTAB
  0
TABLE
  2
BLOCK_RECORD
  5
1
330
0
100
AcDbSymbolTable
 70
     1
  0
BLOCK_RECORD
  5
1F
330
1
100
AcDbSymbolTableRecord
100
AcDbBlockTableRecord
  2
*Model_Space
340
22
 70
     0
280
     1
281
     0
  0
BLOCK_RECORD
  5
1B
330
1
100
AcDbSymbolTableRecord
100
AcDbBlockTableRecord
  2
*Paper_Space
340
1E
 70
     0
280
     1
281
     0
  0
BLOCK_RECORD
  5
23
330
1
100
AcDbSymbolTableRecord
100
AcDbBlockTableRecord
  2
*Paper_Space0
340
26
 70
     0
280
     1
281
     0
  0
ENDTAB
  0
ENDSEC
  0
SECTION
  2
BLOCKS
  0
BLOCK
  5
20
330
1F
100
AcDbEntity
  8
0
100
AcDbBlockBegin
  2
*Model_Space
 70
     2
 10
0.0
 20
0.0
 30
0.0
  3
*Model_Space
  1

  0
ENDBLK
  5
21
330
1F
100
AcDbEntity
  8
0
100
AcDbBlockEnd
  0
BLOCK
  5
1C
330
1B
100
AcDbEntity
 67
     1
  8
0
100
AcDbBlockBegin
  2
*Paper_Space
 70
     0
 10
0.0
 20
0.0
 30
0.0
  3
*Paper_Space
  1

  0
ENDBLK
  5
1D
330
1B
100
AcDbEntity
 67
     1
  8
0
100
AcDbBlockEnd
  0
BLOCK
  5
24
330
23
100
AcDbEntity
  8
0
100
AcDbBlockBegin
  2
*Paper_Space0
 70
     0
 10
0.0
 20
0.0
 30
0.0
  3
*Paper_Space0
  1

  0
ENDBLK
  5
25
330
23
100
AcDbEntity
  8
0
100
AcDbBlockEnd
  0
ENDSEC
  0
SECTION
  2
ENTITIES
  0
ATTDEF
  5
5F
330
1F
100
AcDbEntity
  8
AM_6
100
AcDbText
 10
19.9
 20
19.75
 30
0.0
 40
0.5
  1
ECX 4029
100
AcDbAttributeDefinition
  3

  2
NB
 70
     8
280
     0
  0
ATTDEF
  5
60
330
1F
100
AcDbEntity
  8
AM_6
100
AcDbText
 10
19.9
 20
19.25
 30
0.0
 40
0.5
  1
Support base
100
AcDbAttributeDefinition
  3

  2
NN
 70
     8
280
     0
  0
ATTDEF
  5
61
330
1F
100
AcDbEntity
  8
AM_6
100
AcDbText
 10
19.9
 20
18.75
 30
0.0
 40
0.5
  1
Support base
100
AcDbAttributeDefinition
  3

  2
NT
 70
     8
280
     0
  0
ATTDEF
  5
62
330
1F
100
AcDbEntity
  8
AM_6
100
AcDbText
 10
19.9
 20
18.25
 30
0.0
 40
0.5
  1
$CODE.
100
AcDbAttributeDefinition
  3

  2
NBSYN
 70
     8
280
     0
  0
ATTDEF
  5
63
330
1F
100
AcDbEntity
  8
AM_6
100
AcDbText
 10
19.9
 20
17.75
 30
0.0
 40
0.5
  1
ECX 4029
100
AcDbAttributeDefinition
  3

  2
LINA
 70
     8
280
     0
  0
ATTDEF
  5
64
330
1F
100
AcDbEntity
  8
AM_6
100
AcDbText
 10
19.9
 20
17.25
 30
0.0
 40
0.5
  1
Comepi
100
AcDbAttributeDefinition
  3

  2
CATALOG
 70
     8
280
     0
  0
ATTDEF
  5
65
330
1F
100
AcDbEntity
  8
AM_6
100
AcDbText
 10
19.9
 20
16.75
 30
0.0
 40
0.5
  1
ECX 4029
100
AcDbAttributeDefinition
  3

  2
CODE
 70
     8
280
     0
  0
ATTDEF
  5
66
330
1F
100
AcDbEntity
  8
AM_6
100
AcDbText
 10
19.9
 20
16.25
 30
0.0
 40
0.5
  1
Support base
100
AcDbAttributeDefinition
  3

  2
DSCR
 70
     8
280
     0
  0
ATTDEF
  5
67
330
1F
100
AcDbEntity
  8
AM_6
100
AcDbText
 10
19.9
 20
15.75
 30
0.0
 40
0.5
  1
Reinforced plastic
100
AcDbAttributeDefinition
  3

  2
MAT
 70
     8
280
     0
  0
ATTDEF
  5
68
330
1F
100
AcDbEntity
  8
AM_6
100
AcDbText
 10
19.9
 20
15.25
 30
0.0
 40
0.5
  1
Black
100
AcDbAttributeDefinition
  3

  2
COL
 70
     8
280
     0
  0
ATTDEF
  5
69
330
1F
100
AcDbEntity
  8
AM_6
100
AcDbText
 10
19.9
 20
14.75
 30
0.0
 40
0.5
  1
Hooking
100
AcDbAttributeDefinition
  3

  2
FIX
 70
     8
280
     0
  0
ATTDEF
  5
6A
330
1F
100
AcDbEntity
  8
AM_6
100
AcDbText
 10
19.9
 20
14.25
 30
0.0
 40
0.5
  1
40x30
100
AcDbAttributeDefinition
  3

  2
DEST
 70
     8
280
     0
  0
ATTDEF
  5
6B
330
1F
100
AcDbEntity
  8
AM_6
100
AcDbText
 10
19.9
 20
13.75
 30
0.0
 40
0.5
  1
8
100
AcDbAttributeDefinition
  3

  2
SPE
 70
     8
280
     0
  0
ATTDEF
  5
6C
330
1F
100
AcDbEntity
  8
AM_6
100
AcDbText
 10
19.9
 20
13.25
 30
0.0
 40
0.5
  1
ecx_4029.png
100
AcDbAttributeDefinition
  3

  2
PNG
 70
     8
280
     0
  0
ATTDEF
  5
6D
330
1F
100
AcDbEntity
  8
AM_6
100
AcDbText
 10
19.9
 20
12.75
 30
0.0
 40
0.5
  1
comepi
100
AcDbAttributeDefinition
  3

  2
COMPANY
 70
     8
280
     0
  0
ATTDEF
  5
6E
330
1F
100
AcDbEntity
  8
AM_6
100
AcDbText
 10
19.9
 20
12.25
 30
0.0
 40
0.5
  1
{$CADENAS_DATA/23d-libs/comepi/control_units/contact_base/base/support_base.prj},162 {VTYP=3D},{NB=ECX 4029},{LINA=ECX 4029},{NN=Support base},{DATE=11.02.2025 08:50:39},{GEOMDATE=01.07.2021 05:11:00},{VERSION=},{LINEID=30},{WBVAR=},{WBNUMERIC=}  {N
100
AcDbAttributeDefinition
  3

  2
PSOL_0
 70
     9
280
     0
  0
ATTDEF
  5
6F
330
1F
100
AcDbEntity
  8
AM_6
100
AcDbText
 10
19.9
 20
11.75
 30
0.0
 40
0.5
  1
4029},{LINA=ECX 4029},{KT=DUMMY},{CODE=ECX 4029},{DSCR=Base di supporto},{MAT=Plastica rinforzata},{COL=Nero},{FIX=Aggancio},{DEST=40x30},{SPE=8},{COLX=0.176,0.176,0.176},{PNG=ecx_4029.png}
100
AcDbAttributeDefinition
  3

  2
PSOL_1
 70
     9
280
     0
  0
LINE
  5
72
330
1F
100
AcDbEntity
  8
AM_9
100
AcDbLine
 10
-3.890000000000001
 20
17.925
 30
0.0
 11
-6.010000000000001
 21
17.925
 31
0.0
  0
LINE
  5
73
330
1F
100
AcDbEntity
  8
AM_9
100
AcDbLine
 10
3.890000000000001
 20
-17.925
 30
0.0
 11
6.009999999999994
 21
-17.925
 31
0.0
  0
LINE
  5
74
330
1F
100
AcDbEntity
  8
AM_9
100
AcDbLine
 10
6.010000000000001
 20
17.925
 30
0.0
 11
3.89
 21
17.925
 31
0.0
  0
LINE
  5
75
330
1F
100
AcDbEntity
  8
AM_9
100
AcDbLine
 10
-6.009999999999995
 20
-17.925
 30
0.0
 11
-3.890000000000001
 21
-17.925
 31
0.0
  0
ARC
  5
77
330
1F
100
AcDbEntity
  8
AM_0
100
AcDbCircle
 10
-10.90000000000002
 20
15.75000000000003
 30
0.0
 40
3.999999999999968
100
AcDbArc
 50
89.99999999999974
 51
146.8858708897511
  0
ARC
  5
78
330
1F
100
AcDbEntity
  8
AM_0
100
AcDbCircle
 10
10.90000000000001
 20
15.75000000000001
 30
0.0
 40
3.999999999999986
100
AcDbArc
 50
33.11412911024892
 51
90.00000000000009
  0
LINE
  5
79
330
1F
100
AcDbEntity
  8
AM_0
100
AcDbLine
 10
10.9
 20
19.75
 30
0.0
 11
-10.9
 21
19.75
 31
0.0
  0
ARC
  5
7A
330
1F
100
AcDbEntity
  8
AM_0
100
AcDbCircle
 10
10.90000000000001
 20
-15.75000000000001
 30
0.0
 40
3.999999999999989
100
AcDbArc
 50
269.9999999999999
 51
326.8858708897509
  0
ARC
  5
7B
330
1F
100
AcDbEntity
  8
AM_0
100
AcDbCircle
 10
-10.9
 20
-15.74999999999999
 30
0.0
 40
4.000000000000009
100
AcDbArc
 50
213.1141291102492
 51
270.0
  0
LINE
  5
7C
330
1F
100
AcDbEntity
  8
AM_0
100
AcDbLine
 10
10.9
 20
-19.75
 30
0.0
 11
-10.9
 21
-19.75
 31
0.0
  0
LINE
  5
7D
330
1F
100
AcDbEntity
  8
AM_0
100
AcDbLine
 10
13.0
 20
-4.0825
 30
0.0
 11
13.0
 21
-3.5
 31
0.0
  0
LINE
  5
7E
330
1F
100
AcDbEntity
  8
AM_0
100
AcDbLine
 10
10.77
 20
-3.5
 30
0.0
 11
10.77
 21
-4.0825
 31
0.0
  0
LINE
  5
7F
330
1F
100
AcDbEntity
  8
AM_0
100
AcDbLine
 10
13.0
 20
-3.5
 30
0.0
 11
10.77
 21
-3.5
 31
0.0
  0
LINE
  5
80
330
1F
100
AcDbEntity
  8
AM_0
100
AcDbLine
 10
-13.0
 20
-3.5
 30
0.0
 11
-13.0
 21
-4.0825
 31
0.0
  0
LINE
  5
81
330
1F
100
AcDbEntity
  8
AM_0
100
AcDbLine
 10
-10.77
 20
-4.0825
 30
0.0
 11
-10.77
 21
-3.5
 31
0.0
  0
LINE
  5
82
330
1F
100
AcDbEntity
  8
AM_0
100
AcDbLine
 10
-10.77
 20
-3.5
 30
0.0
 11
-13.0
 21
-3.5
 31
0.0
  0
LINE
  5
83
330
1F
100
AcDbEntity
  8
AM_0
100
AcDbLine
 10
13.0
 20
3.5
 30
0.0
 11
13.0
 21
4.082500000000001
 31
0.0
  0
LINE
  5
84
330
1F
100
AcDbEntity
  8
AM_0
100
AcDbLine
 10
10.77
 20
4.082500000000001
 30
0.0
 11
10.77
 21
3.5
 31
0.0
  0
LINE
  5
85
330
1F
100
AcDbEntity
  8
AM_0
100
AcDbLine
 10
10.77
 20
3.5
 30
0.0
 11
13.0
 21
3.5
 31
0.0
  0
LINE
  5
86
330
1F
100
AcDbEntity
  8
AM_0
100
AcDbLine
 10
-13.0
 20
4.082500000000001
 30
0.0
 11
-13.0
 21
3.5
 31
0.0
  0
LINE
  5
87
330
1F
100
AcDbEntity
  8
AM_0
100
AcDbLine
 10
-10.77
 20
3.5
 30
0.0
 11
-10.77
 21
4.082500000000001
 31
0.0
  0
LINE
  5
88
330
1F
100
AcDbEntity
  8
AM_0
100
AcDbLine
 10
-13.0
 20
3.5
 30
0.0
 11
-10.77
 21
3.5
 31
0.0
  0
LINE
  5
89
330
1F
100
AcDbEntity
  8
AM_9
100
AcDbLine
 10
-3.05
 20
17.9
 30
0.0
 11
-3.268875050040025
 21
17.9
 31
0.0
  0
LINE
  5
8A
330
1F
100
AcDbEntity
  8
AM_9
100
AcDbLine
 10
3.890000000000001
 20
17.9
 30
0.0
 11
6.010000000000001
 21
17.9
 31
0.0
  0
LINE
  5
8B
330
1F
100
AcDbEntity
  8
AM_9
100
AcDbLine
 10
3.05
 20
17.9
 30
0.0
 11
3.268875050040033
 21
17.9
 31
0.0
  0
LINE
  5
8C
330
1F
100
AcDbEntity
  8
AM_9
100
AcDbLine
 10
-3.890000000000001
 20
17.9
 30
0.0
 11
-6.010000000000001
 21
17.9
 31
0.0
  0
LINE
  5
8D
330
1F
100
AcDbEntity
  8
AM_9
100
AcDbLine
 10
3.05
 20
-17.9
 30
0.0
 11
3.268875050040026
 21
-17.9
 31
0.0
  0
LINE
  5
8E
330
1F
100
AcDbEntity
  8
AM_9
100
AcDbLine
 10
-3.05
 20
-17.9
 30
0.0
 11
-3.268875050040032
 21
-17.9
 31
0.0
  0
LINE
  5
8F
330
1F
100
AcDbEntity
  8
AM_9
100
AcDbLine
 10
-3.890000000000001
 20
-17.9
 30
0.0
 11
-6.009999999999995
 21
-17.9
 31
0.0
  0
LINE
  5
90
330
1F
100
AcDbEntity
  8
AM_9
100
AcDbLine
 10
3.890000000000001
 20
-17.9
 30
0.0
 11
6.009999999999995
 21
-17.9
 31
0.0
  0
LINE
  5
91
330
1F
100
AcDbEntity
  8
AM_9
100
AcDbLine
 10
3.05
 20
-17.75571891388308
 30
0.0
 11
3.05
 21
-17.9
 31
0.0
  0
LINE
  5
92
330
1F
100
AcDbEntity
  8
AM_9
100
AcDbLine
 10
-3.05
 20
-17.75571891388308
 30
0.0
 11
-3.05
 21
-17.9
 31
0.0
  0
LINE
  5
93
330
1F
100
AcDbEntity
  8
AM_9
100
AcDbLine
 10
-3.05
 20
17.9
 30
0.0
 11
-3.05
 21
17.75571891388308
 31
0.0
  0
LINE
  5
94
330
1F
100
AcDbEntity
  8
AM_9
100
AcDbLine
 10
3.05
 20
17.9
 30
0.0
 11
3.05
 21
17.75571891388308
 31
0.0
  0
LINE
  5
95
330
1F
100
AcDbEntity
  8
AM_9
100
AcDbLine
 10
-3.890000000000001
 20
16.9762395692966
 30
0.0
 11
-6.010000000000001
 21
16.9762395692966
 31
0.0
  0
LINE
  5
96
330
1F
100
AcDbEntity
  8
AM_9
100
AcDbLine
 10
3.890000000000001
 20
16.9762395692966
 30
0.0
 11
6.010000000000001
 21
16.9762395692966
 31
0.0
  0
LINE
  5
97
330
1F
100
AcDbEntity
  8
AM_9
100
AcDbLine
 10
3.890000000000001
 20
-16.9762395692966
 30
0.0
 11
6.009999999999995
 21
-16.9762395692966
 31
0.0
  0
LINE
  5
98
330
1F
100
AcDbEntity
  8
AM_9
100
AcDbLine
 10
-3.890000000000001
 20
-16.9762395692966
 30
0.0
 11
-6.009999999999995
 21
-16.9762395692966
 31
0.0
  0
LINE
  5
99
330
1F
100
AcDbEntity
  8
AM_9
100
AcDbLine
 10
-11.85
 20
6.040192378864674
 30
0.0
 11
-11.85
 21
8.099999999999998
 31
0.0
  0
ARC
  5
9A
330
1F
100
AcDbEntity
  8
AM_0
100
AcDbCircle
 10
-11.57
 20
13.31
 30
0.0
 40
0.2999999999999989
100
AcDbArc
 50
180.0
 51
270.0000000000003
  0
ARC
  5
9B
330
1F
100
AcDbEntity
  8
AM_0
100
AcDbCircle
 10
-9.369999999999997
 20
11.46
 30
0.0
 40
1.549999999999998
100
AcDbArc
 50
356.8563964187672
 51
90.0
  0
LINE
  5
9C
330
1F
100
AcDbEntity
  8
AM_0
100
AcDbLine
 10
-11.57
 20
13.76
 30
0.0
 11
-6.712742335064393
 21
13.76
 31
0.0
  0
LINE
  5
9D
330
1F
100
AcDbEntity
  8
AM_0
100
AcDbLine
 10
-6.216561223771864
 20
14.5
 30
0.0
 11
-10.55
 21
14.5
 31
0.0
  0
LINE
  5
9E
330
1F
100
AcDbEntity
  8
AM_0
100
AcDbLine
 10
-8.489999999999998
 20
11.47
 30
0.0
 11
-8.489999999999998
 21
11.45
 31
0.0
  0
ARC
  5
9F
330
1F
100
AcDbEntity
  8
AM_0
100
AcDbCircle
 10
-10.55
 20
14.8
 30
0.0
 40
0.3000000000000025
100
AcDbArc
 50
180.0000000000014
 51
269.9999999999997
  0
LINE
  5
A0
330
1F
100
AcDbEntity
  8
AM_0
100
AcDbLine
 10
-10.85
 20
14.8
 30
0.0
 11
-10.85
 21
16.5
 31
0.0
  0
LINE
  5
A1
330
1F
100
AcDbEntity
  8
AM_0
100
AcDbLine
 10
-10.85
 20
16.5
 30
0.0
 11
-12.95
 21
16.5
 31
0.0
  0
LINE
  5
A2
330
1F
100
AcDbEntity
  8
AM_0
100
AcDbLine
 10
-12.95
 20
16.5
 30
0.0
 11
-12.95
 21
12.28
 31
0.0
  0
LINE
  5
A3
330
1F
100
AcDbEntity
  8
AM_0
100
AcDbLine
 10
-12.95
 20
12.28
 30
0.0
 11
-9.299999999999999
 21
12.28
 31
0.0
  0
ARC
  5
A4
330
1F
100
AcDbEntity
  8
AM_0
100
AcDbCircle
 10
-9.3
 20
11.47
 30
0.0
 40
0.8100000000000023
100
AcDbArc
 50
0.0000000000001257
 51
89.99999999999987
  0
ARC
  5
A5
330
1F
100
AcDbEntity
  8
AM_0
100
AcDbCircle
 10
-9.290000000000607
 20
11.45000000000003
 30
0.0
 40
0.8000000000006082
100
AcDbArc
 50
354.6206210088897
 51
359.9999999999976
  0
ARC
  5
A6
330
1F
100
AcDbEntity
  8
AM_0
100
AcDbCircle
 10
-11.57
 20
13.46
 30
0.0
 40
0.2999999999999989
100
AcDbArc
 50
90.0
 51
180.0000000000003
  0
LINE
  5
A7
330
1F
100
AcDbEntity
  8
AM_0
100
AcDbLine
 10
-11.87
 20
13.46
 30
0.0
 11
-11.87
 21
13.31
 31
0.0
  0
LINE
  5
A8
330
1F
100
AcDbEntity
  8
AM_0
100
AcDbLine
 10
-11.57
 20
13.01
 30
0.0
 11
-9.369999999999997
 21
13.01
 31
0.0
  0
ARC
  5
A9
330
1F
100
AcDbEntity
  8
AM_9
100
AcDbCircle
 10
-11.54999999999999
 20
8.099999999999994
 30
0.0
 40
0.300000000000006
100
AcDbArc
 50
90.00000000000102
 51
179.9999999999994
  0
LINE
  5
AA
330
1F
100
AcDbEntity
  8
AM_9
100
AcDbLine
 10
-10.55
 20
-7.545448267190426
 30
0.0
 11
-9.883160439085986
 21
-7.160448267190426
 31
0.0
  0
LINE
  5
AB
330
1F
100
AcDbEntity
  8
AM_9
100
AcDbLine
 10
9.369999999999996
 20
-9.909999999999993
 30
0.0
 11
11.57
 21
-9.909999999999993
 31
0.0
  0
LINE
  5
AC
330
1F
100
AcDbEntity
  8
AM_9
100
AcDbLine
 10
-10.81000000000001
 20
-5.555115057222521
 30
0.0
 11
-10.81000000000001
 21
-4.1
 31
0.0
  0
LINE
  5
AD
330
1F
100
AcDbEntity
  8
AM_9
100
AcDbLine
 10
-9.883160439085986
 20
-7.160448267190426
 30
0.0
 11
-10.81000000000001
 21
-5.555115057222521
 31
0.0
  0
LINE
  5
AE
330
1F
100
AcDbEntity
  8
AM_9
100
AcDbLine
 10
3.890000000000001
 20
-12.73332242582429
 30
0.0
 11
3.890000000000002
 21
-13.46
 31
0.0
  0
LINE
  5
AF
330
1F
100
AcDbEntity
  8
AM_9
100
AcDbLine
 10
-12.95
 20
10.65
 30
0.0
 11
-12.95
 21
4.1
 31
0.0
  0
LINE
  5
B0
330
1F
100
AcDbEntity
  8
AM_9
100
AcDbLine
 10
7.219999999999999
 20
-9.330000000000021
 30
0.0
 11
7.219999999999999
 21
-9.55935144243585
 31
0.0
  0
ARC
  5
B1
330
1F
100
AcDbEntity
  8
AM_9
100
AcDbCircle
 10
-6.924999999999999
 20
-6.056762749192015
 30
0.0
 40
0.2000000000000003
100
AcDbArc
 50
41.17368181060844
 51
179.9999999999992
  0
ARC
  5
B2
330
1F
100
AcDbEntity
  8
AM_9
100
AcDbCircle
 10
9.369999999999997
 20
-11.45999999999999
 30
0.0
 40
1.549999999999995
100
AcDbArc
 50
90.00000000000006
 51
176.8563964187679
  0
LINE
  5
B3
330
1F
100
AcDbEntity
  8
AM_9
100
AcDbLine
 10
-4.350000000000003
 20
-9.259071227720415
 30
0.0
 11
-4.350000000000003
 21
-7.996092795859734
 31
0.0
  0
ARC
  5
B4
330
1F
100
AcDbEntity
  8
AM_9
100
AcDbCircle
 10
11.57
 20
-9.609999999999996
 30
0.0
 40
0.2999999999999972
100
AcDbArc
 50
270.0000000000003
 51
359.999999999999
  0
ARC
  5
B5
330
1F
100
AcDbEntity
  8
AM_9
100
AcDbCircle
 10
4.550000000000014
 20
-7.996092795859743
 30
0.0
 40
0.2000000000000112
100
AcDbArc
 50
119.641084367464
 51
179.9999999999985
  0
LINE
  5
B6
330
1F
100
AcDbEntity
  8
AM_9
100
AcDbLine
 10
4.189999999999998
 20
-13.76
 30
0.0
 11
6.712742335064396
 21
-13.76
 31
0.0
  0
LINE
  5
B7
330
1F
100
AcDbEntity
  8
AM_9
100
AcDbLine
 10
7.125
 20
-8.099999999999998
 30
0.0
 11
7.125
 21
-6.056762749192005
 31
0.0
  0
ARC
  5
B8
330
1F
100
AcDbEntity
  8
AM_9
100
AcDbCircle
 10
7.425000000000003
 20
-8.099999999999996
 30
0.0
 40
0.3000000000000034
100
AcDbArc
 50
180.0000000000003
 51
269.9999999999985
  0
LINE
  5
B9
330
1F
100
AcDbEntity
  8
AM_9
100
AcDbLine
 10
-12.95
 20
4.1
 30
0.0
 11
-10.81
 21
4.1
 31
0.0
  0
LINE
  5
BA
330
1F
100
AcDbEntity
  8
AM_0
100
AcDbLine
 10
11.86999999999999
 20
-13.46
 30
0.0
 11
11.87
 21
-13.31
 31
0.0
  0
LINE
  5
BB
330
1F
100
AcDbEntity
  8
AM_0
100
AcDbLine
 10
10.84999999999998
 20
-16.5
 30
0.0
 11
12.95000000000001
 21
-16.5
 31
0.0
  0
LINE
  5
BC
330
1F
100
AcDbEntity
  8
AM_0
100
AcDbLine
 10
12.95000000000001
 20
-16.5
 30
0.0
 11
12.95000000000001
 21
-12.28
 31
0.0
  0
LINE
  5
BD
330
1F
100
AcDbEntity
  8
AM_0
100
AcDbLine
 10
12.95000000000001
 20
-12.28
 30
0.0
 11
9.299999999999995
 21
-12.28
 31
0.0
  0
ARC
  5
BE
330
1F
100
AcDbEntity
  8
AM_0
100
AcDbCircle
 10
9.299999999999994
 20
-11.47000000000001
 30
0.0
 40
0.8099999999999989
100
AcDbArc
 50
179.2904296979381
 51
270.0000000000001
  0
ARC
  5
BF
330
1F
100
AcDbEntity
  8
AM_0
100
AcDbCircle
 10
9.290000000000656
 20
-11.45
 30
0.0
 40
0.800000000000658
100
AcDbArc
 50
174.6206210088925
 51
180.7139914006148
  0
LINE
  5
C0
330
1F
100
AcDbEntity
  8
AM_0
100
AcDbLine
 10
6.216561223771864
 20
-14.5
 30
0.0
 11
10.55
 21
-14.5
 31
0.0
  0
ARC
  5
C1
330
1F
100
AcDbEntity
  8
AM_0
100
AcDbCircle
 10
10.55
 20
-14.8
 30
0.0
 40
0.3000000000000025
100
AcDbArc
 50
359.9999999999993
 51
90.00000000000068
  0
LINE
  5
C2
330
1F
100
AcDbEntity
  8
AM_0
100
AcDbLine
 10
10.85
 20
-14.80000000000001
 30
0.0
 11
10.84999999999998
 21
-16.5
 31
0.0
  0
ARC
  5
C3
330
1F
100
AcDbEntity
  8
AM_0
100
AcDbCircle
 10
11.57
 20
-13.46
 30
0.0
 40
0.2999999999999989
100
AcDbArc
 50
270.0000000000007
 51
359.999999999999
  0
LINE
  5
C4
330
1F
100
AcDbEntity
  8
AM_0
100
AcDbLine
 10
6.712742335064396
 20
-13.76
 30
0.0
 11
11.57
 21
-13.76
 31
0.0
  0
ARC
  5
C5
330
1F
100
AcDbEntity
  8
AM_0
100
AcDbCircle
 10
9.370000000000001
 20
-11.46
 30
0.0
 40
1.550000000000001
100
AcDbArc
 50
176.8563964187675
 51
269.9999999999999
  0
LINE
  5
C6
330
1F
100
AcDbEntity
  8
AM_0
100
AcDbLine
 10
11.57
 20
-13.01
 30
0.0
 11
9.369999999999997
 21
-13.01
 31
0.0
  0
ARC
  5
C7
330
1F
100
AcDbEntity
  8
AM_0
100
AcDbCircle
 10
11.57
 20
-13.31
 30
0.0
 40
0.2999999999999989
100
AcDbArc
 50
359.9999999999986
 51
89.99999999999899
  0
LINE
  5
C8
330
1F
100
AcDbEntity
  8
AM_0
100
AcDbLine
 10
11.57
 20
13.76
 30
0.0
 11
6.7127423350644
 21
13.76
 31
0.0
  0
LINE
  5
C9
330
1F
100
AcDbEntity
  8
AM_0
100
AcDbLine
 10
10.55
 20
14.5
 30
0.0
 11
6.21656122377187
 21
14.5
 31
0.0
  0
LINE
  5
CA
330
1F
100
AcDbEntity
  8
AM_0
100
AcDbLine
 10
12.95
 20
16.5
 30
0.0
 11
10.85
 21
16.5
 31
0.0
  0
ARC
  5
CB
330
1F
100
AcDbEntity
  8
AM_0
100
AcDbCircle
 10
9.290000000000818
 20
11.45000000000002
 30
0.0
 40
0.8000000000008193
100
AcDbArc
 50
179.2860085993769
 51
185.379378991108
  0
ARC
  5
CC
330
1F
100
AcDbEntity
  8
AM_0
100
AcDbCircle
 10
9.299999999999997
 20
11.47000000000001
 30
0.0
 40
0.8099999999999987
100
AcDbArc
 50
89.99999999999987
 51
180.7095703020518
  0
LINE
  5
CD
330
1F
100
AcDbEntity
  8
AM_0
100
AcDbLine
 10
9.299999999999999
 20
12.28
 30
0.0
 11
12.95
 21
12.28
 31
0.0
  0
LINE
  5
CE
330
1F
100
AcDbEntity
  8
AM_0
100
AcDbLine
 10
12.95
 20
12.28
 30
0.0
 11
12.95
 21
16.5
 31
0.0
  0
LINE
  5
CF
330
1F
100
AcDbEntity
  8
AM_0
100
AcDbLine
 10
10.85
 20
16.5
 30
0.0
 11
10.85
 21
14.8
 31
0.0
  0
ARC
  5
D0
330
1F
100
AcDbEntity
  8
AM_0
100
AcDbCircle
 10
10.54999999999999
 20
14.80000000000001
 30
0.0
 40
0.300000000000006
100
AcDbArc
 50
270.000000000001
 51
359.999999999999
  0
ARC
  5
D1
330
1F
100
AcDbEntity
  8
AM_0
100
AcDbCircle
 10
9.370000000000012
 20
11.45999999999999
 30
0.0
 40
1.550000000000011
100
AcDbArc
 50
90.00000000000053
 51
183.1436035812321
  0
LINE
  5
D2
330
1F
100
AcDbEntity
  8
AM_0
100
AcDbLine
 10
9.369999999999997
 20
13.01
 30
0.0
 11
11.57
 21
13.01
 31
0.0
  0
ARC
  5
D3
330
1F
100
AcDbEntity
  8
AM_0
100
AcDbCircle
 10
11.57
 20
13.31
 30
0.0
 40
0.2999999999999972
100
AcDbArc
 50
269.9999999999993
 51
0.0000000000016963
  0
LINE
  5
D4
330
1F
100
AcDbEntity
  8
AM_0
100
AcDbLine
 10
11.87
 20
13.31
 30
0.0
 11
11.87
 21
13.46
 31
0.0
  0
ARC
  5
D5
330
1F
100
AcDbEntity
  8
AM_0
100
AcDbCircle
 10
11.57
 20
13.46
 30
0.0
 40
0.3000000000000007
100
AcDbArc
 50
0.000000000001357
 51
90.00000000000034
  0
ARC
  5
D6
330
1F
100
AcDbEntity
  8
AM_9
100
AcDbCircle
 10
11.65
 20
-6.040192378864668
 30
0.0
 40
0.1999999999999993
100
AcDbArc
 50
359.9999999999941
 51
150.0000000000057
  0
ARC
  5
D7
330
1F
100
AcDbEntity
  8
AM_9
100
AcDbCircle
 10
11.57
 20
-9.330000000000002
 30
0.0
 40
0.2999999999999989
100
AcDbArc
 50
0.0000000000020356
 51
89.99999999999899
  0
ARC
  5
D8
330
1F
100
AcDbEntity
  8
AM_9
100
AcDbCircle
 10
0.0000000000001537
 20
-0.0000000000003233
 30
0.0
 40
12.63999999999965
100
AcDbArc
 50
291.0083754929216
 51
300.8949089312443
  0
ARC
  5
D9
330
1F
100
AcDbEntity
  8
AM_9
100
AcDbCircle
 10
4.890000000000006
 20
-12.73332242582427
 30
0.0
 40
1.000000000000004
100
AcDbArc
 50
111.0083607518179
 51
180.0000000000014
  0
ARC
  5
DA
330
1F
100
AcDbEntity
  8
AM_9
100
AcDbCircle
 10
4.190000000000004
 20
-13.45999999999999
 30
0.0
 40
0.3000000000000016
100
AcDbArc
 50
180.0000000000017
 51
269.9999999999987
  0
LINE
  5
DB
330
1F
100
AcDbEntity
  8
AM_9
100
AcDbLine
 10
11.86999999999999
 20
-9.610000000000001
 30
0.0
 11
11.87
 21
-9.329999999999991
 31
0.0
  0
LINE
  5
DC
330
1F
100
AcDbEntity
  8
AM_9
100
AcDbLine
 10
11.57
 20
-9.030000000000003
 30
0.0
 11
7.520000000000008
 21
-9.030000000000003
 31
0.0
  0
ARC
  5
DD
330
1F
100
AcDbEntity
  8
AM_9
100
AcDbCircle
 10
7.519999999999997
 20
-9.330000000000002
 30
0.0
 40
0.2999999999999989
100
AcDbArc
 50
89.99999999999795
 51
180.0000000000038
  0
ARC
  5
DE
330
1F
100
AcDbEntity
  8
AM_9
100
AcDbCircle
 10
5.720000000000002
 20
-9.559351442435851
 30
0.0
 40
1.499999999999997
100
AcDbArc
 50
300.894916303773
 51
0.0000000000000679
  0
LINE
  5
DF
330
1F
100
AcDbEntity
  8
AM_9
100
AcDbLine
 10
9.883160439085987
 20
-7.160448267190423
 30
0.0
 11
10.54999999999999
 21
-7.545448267190419
 31
0.0
  0
LINE
  5
E0
330
1F
100
AcDbEntity
  8
AM_9
100
AcDbLine
 10
10.81000000000001
 20
-4.1
 30
0.0
 11
10.81000000000001
 21
-5.555115057222525
 31
0.0
  0
LINE
  5
E1
330
1F
100
AcDbEntity
  8
AM_9
100
AcDbLine
 10
12.95000000000001
 20
-4.100000000000001
 30
0.0
 11
10.81000000000001
 21
-4.1
 31
0.0
  0
ARC
  5
E2
330
1F
100
AcDbEntity
  8
AM_9
100
AcDbCircle
 10
-7.425000000000007
 20
-8.099999999999994
 30
0.0
 40
0.300000000000006
100
AcDbArc
 50
270.0000000000022
 51
359.9999999999997
  0
ARC
  5
E3
330
1F
100
AcDbEntity
  8
AM_9
100
AcDbCircle
 10
-6.925
 20
6.056762749192012
 30
0.0
 40
0.2000000000000002
100
AcDbArc
 50
179.9999999999997
 51
318.8263218085016
  0
LINE
  5
E4
330
1F
100
AcDbEntity
  8
AM_9
100
AcDbLine
 10
-7.124999999999998
 20
8.099999999999996
 30
0.0
 11
-7.125
 21
6.056762749192012
 31
0.0
  0
ARC
  5
E5
330
1F
100
AcDbEntity
  8
AM_9
100
AcDbCircle
 10
-7.425000000000005
 20
8.099999999999993
 30
0.0
 40
0.3000000000000069
100
AcDbArc
 50
0.0000000000006785
 51
89.99999999999899
  0
LINE
  5
E6
330
1F
100
AcDbEntity
  8
AM_9
100
AcDbLine
 10
3.683438776228138
 20
-14.5
 30
0.0
 11
6.216561223771864
 21
-14.5
 31
0.0
  0
LINE
  5
E7
330
1F
100
AcDbEntity
  8
AM_9
100
AcDbLine
 10
-6.216561223771862
 20
-14.5
 30
0.0
 11
-3.683438776228146
 21
-14.5
 31
0.0
  0
ARC
  5
E8
330
1F
100
AcDbEntity
  8
AM_9
100
AcDbCircle
 10
-11.65
 20
6.040192378864663
 30
0.0
 40
0.2000000000000011
100
AcDbArc
 50
179.9999999999967
 51
330.000000000003
  0
LINE
  5
E9
330
1F
100
AcDbEntity
  8
AM_9
100
AcDbLine
 10
-10.55
 20
7.545448267190427
 30
0.0
 11
-11.47679491924311
 21
5.940192378864671
 31
0.0
  0
LINE
  5
EA
330
1F
100
AcDbEntity
  8
AM_9
100
AcDbLine
 10
-10.81
 20
5.555115057222521
 30
0.0
 11
-9.883160439085982
 21
7.160448267190427
 31
0.0
  0
ARC
  5
EB
330
1F
100
AcDbEntity
  8
AM_9
100
AcDbCircle
 10
11.55
 20
-8.099999999999993
 30
0.0
 40
0.3000000000000078
100
AcDbArc
 50
269.9999999999997
 51
359.9999999999997
  0
ARC
  5
EC
330
1F
100
AcDbEntity
  8
AM_9
100
AcDbCircle
 10
-9.289999999999976
 20
-11.45
 30
0.0
 40
0.8000000000000002
100
AcDbArc
 50
5.379378991112022
 51
90.00000000000166
  0
LINE
  5
ED
330
1F
100
AcDbEntity
  8
AM_9
100
AcDbLine
 10
-12.95000000000001
 20
-10.65
 30
0.0
 11
-9.29
 21
-10.65
 31
0.0
  0
LINE
  5
EE
330
1F
100
AcDbEntity
  8
AM_9
100
AcDbLine
 10
-12.95000000000001
 20
-4.1
 30
0.0
 11
-12.95000000000001
 21
-10.65
 31
0.0
  0
LINE
  5
EF
330
1F
100
AcDbEntity
  8
AM_9
100
AcDbLine
 10
-11.4767949192431
 20
-5.940192378864666
 30
0.0
 11
-10.55
 21
-7.545448267190426
 31
0.0
  0
ARC
  5
F0
330
1F
100
AcDbEntity
  8
AM_9
100
AcDbCircle
 10
-11.65
 20
-6.040192378864629
 30
0.0
 40
0.1999999999999988
100
AcDbArc
 50
29.99999999998774
 51
180.000000000013
  0
LINE
  5
F1
330
1F
100
AcDbEntity
  8
AM_9
100
AcDbLine
 10
-11.85
 20
-8.099999999999998
 30
0.0
 11
-11.85
 21
-6.040192378864674
 31
0.0
  0
LINE
  5
F2
330
1F
100
AcDbEntity
  8
AM_9
100
AcDbLine
 10
-7.424999999999995
 20
-8.4
 30
0.0
 11
-11.55
 21
-8.4
 31
0.0
  0
LINE
  5
F3
330
1F
100
AcDbEntity
  8
AM_9
100
AcDbLine
 10
-3.889999999999999
 20
12.7333224258243
 30
0.0
 11
-3.889999999999999
 21
13.46
 31
0.0
  0
ARC
  5
F4
330
1F
100
AcDbEntity
  8
AM_9
100
AcDbCircle
 10
-4.889999999999995
 20
12.73332242582429
 30
0.0
 40
0.9999999999999949
100
AcDbArc
 50
291.0083744121955
 51
0.0000000000004071
  0
ARC
  5
F5
330
1F
100
AcDbEntity
  8
AM_9
100
AcDbCircle
 10
-0.0000000000004787
 20
0.000000000000961
 30
0.0
 40
12.63999999999893
100
AcDbArc
 50
111.0083744121951
 51
120.8949079385343
  0
ARC
  5
F6
330
1F
100
AcDbEntity
  8
AM_9
100
AcDbCircle
 10
-4.549999999999993
 20
-7.99609279585973
 30
0.0
 40
0.1999999999999895
100
AcDbArc
 50
359.999999999999
 51
60.35891563254157
  0
ARC
  5
F7
330
1F
100
AcDbEntity
  8
AM_9
100
AcDbCircle
 10
-11.57
 20
-9.329999999999991
 30
0.0
 40
0.2999999999999918
100
AcDbArc
 50
90.0
 51
180.0
  0
ARC
  5
F8
330
1F
100
AcDbEntity
  8
AM_9
100
AcDbCircle
 10
-0.000000000000004
 20
0.0000000000000142
 30
0.0
 40
10.23000000000001
100
AcDbArc
 50
244.8354142248396
 51
295.1645857751605
  0
LINE
  5
F9
330
1F
100
AcDbEntity
  8
AM_9
100
AcDbLine
 10
4.350000000000003
 20
-7.996092795859737
 30
0.0
 11
4.350000000000003
 21
-9.259071227720412
 31
0.0
  0
ARC
  5
FA
330
1F
100
AcDbEntity
  8
AM_9
100
AcDbCircle
 10
-11.57
 20
9.329999999999997
 30
0.0
 40
0.2999999999999954
100
AcDbArc
 50
180.000000000001
 51
270.000000000001
  0
LINE
  5
FB
330
1F
100
AcDbEntity
  8
AM_9
100
AcDbLine
 10
-11.87
 20
9.610000000000001
 30
0.0
 11
-11.87
 21
9.329999999999991
 31
0.0
  0
ARC
  5
FC
330
1F
100
AcDbEntity
  8
AM_9
100
AcDbCircle
 10
-11.57
 20
9.61
 30
0.0
 40
0.3000000000000007
100
AcDbArc
 50
90.0
 51
179.9999999999997
  0
ARC
  5
FD
330
1F
100
AcDbEntity
  8
AM_9
100
AcDbCircle
 10
-4.889999999999999
 20
-12.73332242582429
 30
0.0
 40
0.9999999999999964
100
AcDbArc
 50
359.9999999999996
 51
68.99162558780449
  0
LINE
  5
FE
330
1F
100
AcDbEntity
  8
AM_9
100
AcDbLine
 10
-10.81
 20
4.1
 30
0.0
 11
-10.81
 21
5.555115057222521
 31
0.0
  0
LINE
  5
FF
330
1F
100
AcDbEntity
  8
AM_9
100
AcDbLine
 10
11.85
 20
-6.040192378864688
 30
0.0
 11
11.85
 21
-8.099999999999994
 31
0.0
  0
LINE
  5
100
330
1F
100
AcDbEntity
  8
AM_9
100
AcDbLine
 10
6.7127423350644
 20
13.76
 30
0.0
 11
4.189999999999998
 21
13.76
 31
0.0
  0
ARC
  5
101
330
1F
100
AcDbEntity
  8
AM_9
100
AcDbCircle
 10
4.19
 20
13.46
 30
0.0
 40
0.3000000000000007
100
AcDbArc
 50
90.00000000000034
 51
179.9999999999987
  0
LINE
  5
102
330
1F
100
AcDbEntity
  8
AM_9
100
AcDbLine
 10
3.889999999999999
 20
13.46
 30
0.0
 11
3.889999999999999
 21
12.73332242582429
 31
0.0
  0
ARC
  5
103
330
1F
100
AcDbEntity
  8
AM_9
100
AcDbCircle
 10
4.890000000000001
 20
12.7333224258243
 30
0.0
 40
1.000000000000002
100
AcDbArc
 50
180.0000000000001
 51
248.9916193722384
  0
ARC
  5
104
330
1F
100
AcDbEntity
  8
AM_9
100
AcDbCircle
 10
0.0000000000003713
 20
0.0000000000007869
 30
0.0
 40
12.63999999999913
100
AcDbArc
 50
59.10509206146573
 51
68.99162607954258
  0
ARC
  5
105
330
1F
100
AcDbEntity
  8
AM_9
100
AcDbCircle
 10
5.720000000000019
 20
9.559351442435842
 30
0.0
 40
1.49999999999998
100
AcDbArc
 50
0.0000000000002714
 51
59.10509206146688
  0
LINE
  5
106
330
1F
100
AcDbEntity
  8
AM_9
100
AcDbLine
 10
7.219999999999999
 20
9.55935144243585
 30
0.0
 11
7.219999999999999
 21
9.330000000000021
 31
0.0
  0
ARC
  5
107
330
1F
100
AcDbEntity
  8
AM_9
100
AcDbCircle
 10
7.520000000000005
 20
9.330000000000009
 30
0.0
 40
0.300000000000006
100
AcDbArc
 50
179.9999999999976
 51
269.9999999999987
  0
LINE
  5
108
330
1F
100
AcDbEntity
  8
AM_9
100
AcDbLine
 10
7.519999999999999
 20
9.030000000000003
 30
0.0
 11
11.57
 21
9.030000000000003
 31
0.0
  0
ARC
  5
109
330
1F
100
AcDbEntity
  8
AM_9
100
AcDbCircle
 10
11.57000000000001
 20
9.329999999999997
 30
0.0
 40
0.2999999999999936
100
AcDbArc
 50
269.9999999999986
 51
359.999999999999
  0
LINE
  5
10A
330
1F
100
AcDbEntity
  8
AM_9
100
AcDbLine
 10
11.87
 20
9.329999999999991
 30
0.0
 11
11.87
 21
9.610000000000001
 31
0.0
  0
ARC
  5
10B
330
1F
100
AcDbEntity
  8
AM_9
100
AcDbCircle
 10
11.57
 20
9.609999999999992
 30
0.0
 40
0.3000000000000007
100
AcDbArc
 50
0.0000000000016963
 51
89.99999999999969
  0
LINE
  5
10C
330
1F
100
AcDbEntity
  8
AM_9
100
AcDbLine
 10
11.57
 20
9.909999999999993
 30
0.0
 11
9.37
 21
9.909999999999993
 31
0.0
  0
ARC
  5
10D
330
1F
100
AcDbEntity
  8
AM_9
100
AcDbCircle
 10
9.369999999999996
 20
11.45999999999999
 30
0.0
 40
1.549999999999996
100
AcDbArc
 50
183.1436035812321
 51
270.0000000000001
  0
LINE
  5
10E
330
1F
100
AcDbEntity
  8
AM_9
100
AcDbLine
 10
10.81000000000001
 20
-5.555115057222525
 30
0.0
 11
9.883160439085987
 21
-7.160448267190423
 31
0.0
  0
LINE
  5
10F
330
1F
100
AcDbEntity
  8
AM_0
100
AcDbLine
 10
3.683438776228131
 20
14.5
 30
0.0
 11
-3.683438776228138
 21
14.5
 31
0.0
  0
ARC
  5
110
330
1F
100
AcDbEntity
  8
AM_9
100
AcDbCircle
 10
-9.289999999999997
 20
11.45
 30
0.0
 40
0.7999999999999989
100
AcDbArc
 50
269.9999999999999
 51
354.6206210088881
  0
LINE
  5
111
330
1F
100
AcDbEntity
  8
AM_9
100
AcDbLine
 10
-10.81000000000001
 20
-4.1
 30
0.0
 11
-12.95000000000001
 21
-4.1
 31
0.0
  0
ARC
  5
112
330
1F
100
AcDbEntity
  8
AM_9
100
AcDbCircle
 10
-11.55
 20
-8.099999999999993
 30
0.0
 40
0.3000000000000078
100
AcDbArc
 50
180.000000000001
 51
270.0
  0
LINE
  5
113
330
1F
100
AcDbEntity
  8
AM_9
100
AcDbLine
 10
-7.125
 20
-6.056762749192012
 30
0.0
 11
-7.125
 21
-8.099999999999996
 31
0.0
  0
ARC
  5
114
330
1F
100
AcDbEntity
  8
AM_9
100
AcDbCircle
 10
9.290000000000003
 20
11.45
 30
0.0
 40
0.8000000000000058
100
AcDbArc
 50
185.3793789911123
 51
269.9999999999998
  0
LINE
  5
115
330
1F
100
AcDbEntity
  8
AM_9
100
AcDbLine
 10
12.95
 20
10.65
 30
0.0
 11
9.29
 21
10.65
 31
0.0
  0
LINE
  5
116
330
1F
100
AcDbEntity
  8
AM_9
100
AcDbLine
 10
12.95
 20
4.1
 30
0.0
 11
12.95
 21
10.65
 31
0.0
  0
ARC
  5
117
330
1F
100
AcDbEntity
  8
AM_9
100
AcDbCircle
 10
6.925000000000006
 20
-6.056762749192001
 30
0.0
 40
0.199999999999994
100
AcDbArc
 50
359.9999999999987
 51
138.8263181893948
  0
LINE
  5
118
330
1F
100
AcDbEntity
  8
AM_9
100
AcDbLine
 10
10.81
 20
5.555115057222525
 30
0.0
 11
10.81
 21
4.1
 31
0.0
  0
LINE
  5
119
330
1F
100
AcDbEntity
  8
AM_9
100
AcDbLine
 10
9.883160439085982
 20
7.160448267190422
 30
0.0
 11
10.81
 21
5.555115057222525
 31
0.0
  0
LINE
  5
11A
330
1F
100
AcDbEntity
  8
AM_9
100
AcDbLine
 10
11.55
 20
-8.4
 30
0.0
 11
7.424999999999995
 21
-8.4
 31
0.0
  0
LINE
  5
11B
330
1F
100
AcDbEntity
  8
AM_9
100
AcDbLine
 10
11.47679491924311
 20
5.940192378864684
 30
0.0
 11
10.55
 21
7.54544826719042
 31
0.0
  0
ARC
  5
11C
330
1F
100
AcDbEntity
  8
AM_9
100
AcDbCircle
 10
11.65
 20
6.040192378864673
 30
0.0
 40
0.1999999999999983
100
AcDbArc
 50
209.9999999999966
 51
0.0
  0
LINE
  5
11D
330
1F
100
AcDbEntity
  8
AM_9
100
AcDbLine
 10
11.85
 20
8.099999999999977
 30
0.0
 11
11.85
 21
6.040192378864673
 31
0.0
  0
LINE
  5
11E
330
1F
100
AcDbEntity
  8
AM_9
100
AcDbLine
 10
10.54999999999999
 20
-7.545448267190419
 30
0.0
 11
11.47679491924311
 21
-5.940192378864685
 31
0.0
  0
LINE
  5
11F
330
1F
100
AcDbEntity
  8
AM_9
100
AcDbLine
 10
7.425
 20
8.4
 30
0.0
 11
11.55
 21
8.4
 31
0.0
  0
ARC
  5
120
330
1F
100
AcDbEntity
  8
AM_9
100
AcDbCircle
 10
7.425000000000011
 20
8.099999999999989
 30
0.0
 40
0.3000000000000114
100
AcDbArc
 50
90.00000000000222
 51
179.9999999999983
  0
LINE
  5
121
330
1F
100
AcDbEntity
  8
AM_9
100
AcDbLine
 10
7.125
 20
6.056762749192012
 30
0.0
 11
7.125
 21
8.099999999999998
 31
0.0
  0
ARC
  5
122
330
1F
100
AcDbEntity
  8
AM_9
100
AcDbCircle
 10
6.925
 20
6.056762749192014
 30
0.0
 40
0.2000000000000011
100
AcDbArc
 50
221.1736818106075
 51
359.9999999999995
  0
LINE
  5
123
330
1F
100
AcDbEntity
  8
AM_9
100
AcDbLine
 10
12.95000000000001
 20
-10.65
 30
0.0
 11
12.95000000000001
 21
-4.100000000000001
 31
0.0
  0
LINE
  5
124
330
1F
100
AcDbEntity
  8
AM_9
100
AcDbLine
 10
9.29
 20
-10.65
 30
0.0
 11
12.95000000000001
 21
-10.65
 31
0.0
  0
ARC
  5
125
330
1F
100
AcDbEntity
  8
AM_9
100
AcDbCircle
 10
9.289999999999997
 20
-11.45
 30
0.0
 40
0.8000000000000025
100
AcDbArc
 50
89.99999999999987
 51
174.6206210088879
  0
ARC
  5
126
330
1F
100
AcDbEntity
  8
AM_9
100
AcDbCircle
 10
-4.549999999999998
 20
7.996092795859737
 30
0.0
 40
0.1999999999999986
100
AcDbArc
 50
299.6410843674608
 51
0.0
  0
LINE
  5
127
330
1F
100
AcDbEntity
  8
AM_9
100
AcDbLine
 10
-11.55
 20
8.4
 30
0.0
 11
-7.425
 21
8.4
 31
0.0
  0
LINE
  5
128
330
1F
100
AcDbEntity
  8
AM_9
100
AcDbLine
 10
-7.520000000000008
 20
-9.03
 30
0.0
 11
-11.57
 21
-9.03
 31
0.0
  0
ARC
  5
129
330
1F
100
AcDbEntity
  8
AM_9
100
AcDbCircle
 10
-7.52
 20
-9.33
 30
0.0
 40
0.3000000000000016
100
AcDbArc
 50
359.999999999999
 51
90.00000000000136
  0
LINE
  5
12A
330
1F
100
AcDbEntity
  8
AM_9
100
AcDbLine
 10
-9.883160439085982
 20
7.160448267190427
 30
0.0
 11
-10.55
 21
7.545448267190427
 31
0.0
  0
ARC
  5
12B
330
1F
100
AcDbEntity
  8
AM_9
100
AcDbCircle
 10
-4.19
 20
-13.46
 30
0.0
 40
0.2999999999999972
100
AcDbArc
 50
270.0000000000005
 51
0.0000000000006785
  0
LINE
  5
12C
330
1F
100
AcDbEntity
  8
AM_9
100
AcDbLine
 10
-6.712742335064395
 20
-13.76
 30
0.0
 11
-4.189999999999998
 21
-13.76
 31
0.0
  0
LINE
  5
12D
330
1F
100
AcDbEntity
  8
AM_9
100
AcDbLine
 10
-9.29
 20
10.65
 30
0.0
 11
-12.95
 21
10.65
 31
0.0
  0
ARC
  5
12E
330
1F
100
AcDbEntity
  8
AM_9
100
AcDbCircle
 10
-8.770000000000083
 20
4.804903745133742
 30
0.0
 40
1.999999999999917
100
AcDbArc
 50
151.2825659571944
 51
180.0000000000007
  0
ARC
  5
12F
330
1F
100
AcDbEntity
  8
AM_9
100
AcDbCircle
 10
-0.0000000000007407
 20
0.0000000000004601
 30
0.0
 40
11.99999999999913
100
AcDbArc
 50
141.9524925463797
 51
151.2825659571951
  0
LINE
  5
130
330
1F
100
AcDbEntity
  8
AM_0
100
AcDbLine
 10
-3.683438776228146
 20
-14.5
 30
0.0
 11
3.683438776228138
 21
-14.5
 31
0.0
  0
LINE
  5
131
330
1F
100
AcDbEntity
  8
AM_0
100
AcDbLine
 10
-12.95000000000001
 20
-16.5
 30
0.0
 11
-10.84999999999999
 21
-16.5
 31
0.0
  0
LINE
  5
132
330
1F
100
AcDbEntity
  8
AM_0
100
AcDbLine
 10
-11.87
 20
-13.31
 30
0.0
 11
-11.87
 21
-13.46
 31
0.0
  0
ARC
  5
133
330
1F
100
AcDbEntity
  8
AM_0
100
AcDbCircle
 10
-11.56999999999999
 20
-13.46
 30
0.0
 40
0.3000000000000025
100
AcDbArc
 50
179.9999999999997
 51
269.9999999999986
  0
ARC
  5
134
330
1F
100
AcDbEntity
  8
AM_0
100
AcDbCircle
 10
-9.370000000000001
 20
-11.46
 30
0.0
 40
1.550000000000001
100
AcDbArc
 50
270.0000000000002
 51
3.143603581232666
  0
LINE
  5
135
330
1F
100
AcDbEntity
  8
AM_0
100
AcDbLine
 10
-9.369999999999996
 20
-13.01
 30
0.0
 11
-11.57
 21
-13.01
 31
0.0
  0
LINE
  5
136
330
1F
100
AcDbEntity
  8
AM_0
100
AcDbLine
 10
-11.57
 20
-13.76
 30
0.0
 11
-6.712742335064395
 21
-13.76
 31
0.0
  0
ARC
  5
137
330
1F
100
AcDbEntity
  8
AM_0
100
AcDbCircle
 10
-11.57
 20
-13.31
 30
0.0
 40
0.2999999999999936
100
AcDbArc
 50
90.0
 51
180.000000000001
  0
ARC
  5
138
330
1F
100
AcDbEntity
  8
AM_0
100
AcDbCircle
 10
-9.290000000001386
 20
-11.45000000000005
 30
0.0
 40
0.8000000000014094
100
AcDbArc
 50
0.0000000000038167
 51
5.379378991106352
  0
LINE
  5
139
330
1F
100
AcDbEntity
  8
AM_0
100
AcDbLine
 10
-8.489999999999977
 20
-11.45
 30
0.0
 11
-8.489999999999977
 21
-11.47
 31
0.0
  0
ARC
  5
13A
330
1F
100
AcDbEntity
  8
AM_0
100
AcDbCircle
 10
-9.299999999999974
 20
-11.47
 30
0.0
 40
0.809999999999997
100
AcDbArc
 50
269.9999999999985
 51
0.0000000000001257
  0
LINE
  5
13B
330
1F
100
AcDbEntity
  8
AM_0
100
AcDbLine
 10
-9.299999999999995
 20
-12.28
 30
0.0
 11
-12.95000000000001
 21
-12.28
 31
0.0
  0
LINE
  5
13C
330
1F
100
AcDbEntity
  8
AM_0
100
AcDbLine
 10
-12.95000000000001
 20
-12.28
 30
0.0
 11
-12.95000000000001
 21
-16.5
 31
0.0
  0
LINE
  5
13D
330
1F
100
AcDbEntity
  8
AM_0
100
AcDbLine
 10
-10.84999999999999
 20
-16.5
 30
0.0
 11
-10.85
 21
-14.8
 31
0.0
  0
ARC
  5
13E
330
1F
100
AcDbEntity
  8
AM_0
100
AcDbCircle
 10
-10.55
 20
-14.80000000000001
 30
0.0
 40
0.3000000000000078
100
AcDbArc
 50
90.0
 51
179.9999999999987
  0
LINE
  5
13F
330
1F
100
AcDbEntity
  8
AM_0
100
AcDbLine
 10
-10.55
 20
-14.5
 30
0.0
 11
-6.216561223771862
 21
-14.5
 31
0.0
  0
LINE
  5
140
330
1F
100
AcDbEntity
  8
AM_9
100
AcDbLine
 10
-3.890000000000003
 20
-13.46
 30
0.0
 11
-3.890000000000002
 21
-12.7333224258243
 31
0.0
  0
ARC
  5
141
330
1F
100
AcDbEntity
  8
AM_9
100
AcDbCircle
 10
-0.0000000000002132
 20
-0.0000000000004405
 30
0.0
 40
12.63999999999951
100
AcDbArc
 50
239.1050920614659
 51
248.9916255878047
  0
ARC
  5
142
330
1F
100
AcDbEntity
  8
AM_9
100
AcDbCircle
 10
-5.719999999999999
 20
-9.559351442435831
 30
0.0
 40
1.5
100
AcDbArc
 50
180.0
 51
239.1050920614659
  0
LINE
  5
143
330
1F
100
AcDbEntity
  8
AM_9
100
AcDbLine
 10
-7.219999999999999
 20
-9.559351442435831
 30
0.0
 11
-7.219999999999999
 21
-9.330000000000005
 31
0.0
  0
LINE
  5
144
330
1F
100
AcDbEntity
  8
AM_9
100
AcDbLine
 10
-11.86999999999999
 20
-9.329999999999991
 30
0.0
 11
-11.87
 21
-9.610000000000001
 31
0.0
  0
ARC
  5
145
330
1F
100
AcDbEntity
  8
AM_9
100
AcDbCircle
 10
-11.56999999999999
 20
-9.610000000000001
 30
0.0
 40
0.3000000000000007
100
AcDbArc
 50
180.0
 51
269.999999999999
  0
LINE
  5
146
330
1F
100
AcDbEntity
  8
AM_9
100
AcDbLine
 10
-11.57
 20
-9.910000000000002
 30
0.0
 11
-9.369999999999996
 21
-9.91
 31
0.0
  0
ARC
  5
147
330
1F
100
AcDbEntity
  8
AM_9
100
AcDbCircle
 10
-9.37
 20
-11.46
 30
0.0
 40
1.55
100
AcDbArc
 50
3.143603581232604
 51
89.99999999999987
  0
LINE
  5
148
330
1F
100
AcDbEntity
  8
AM_9
100
AcDbLine
 10
-3.890000000000001
 20
-16.11021416551216
 30
0.0
 11
-6.009999999999995
 21
-16.11021416551216
 31
0.0
  0
LINE
  5
149
330
1F
100
AcDbEntity
  8
AM_9
100
AcDbLine
 10
-7.219999999999999
 20
9.330000000000005
 30
0.0
 11
-7.219999999999999
 21
9.559351442435831
 31
0.0
  0
LINE
  5
14A
330
1F
100
AcDbEntity
  8
AM_9
100
AcDbLine
 10
-10.77
 20
-4.0825
 30
0.0
 11
-10.77
 21
-4.804903745133711
 31
0.0
  0
ARC
  5
14B
330
1F
100
AcDbEntity
  8
AM_9
100
AcDbCircle
 10
0.0000000000000124
 20
0.0
 30
0.0
 40
10.21999999999999
100
AcDbArc
 50
324.4974842079081
 51
35.50251579209188
  0
LINE
  5
14C
330
1F
100
AcDbEntity
  8
AM_9
100
AcDbLine
 10
3.890000000000001
 20
-16.11021416551216
 30
0.0
 11
6.009999999999995
 21
-16.11021416551216
 31
0.0
  0
LINE
  5
14D
330
1F
100
AcDbEntity
  8
AM_9
100
AcDbLine
 10
10.77
 20
4.082500000000001
 30
0.0
 11
10.77
 21
4.804903745133737
 31
0.0
  0
LINE
  5
14E
330
1F
100
AcDbEntity
  8
AM_9
100
AcDbLine
 10
10.77
 20
-4.804903745133715
 30
0.0
 11
10.77
 21
-4.0825
 31
0.0
  0
LINE
  5
14F
330
1F
100
AcDbEntity
  8
AM_9
100
AcDbLine
 10
8.32
 20
-8.200000000000006
 30
0.0
 11
10.84295713805794
 21
-8.200000000000006
 31
0.0
  0
ARC
  5
150
330
1F
100
AcDbEntity
  8
AM_9
100
AcDbCircle
 10
4.549999999999989
 20
7.996092795859734
 30
0.0
 40
0.1999999999999895
100
AcDbArc
 50
179.999999999999
 51
240.3589192516499
  0
LINE
  5
151
330
1F
100
AcDbEntity
  8
AM_9
100
AcDbLine
 10
4.35
 20
9.259071227720412
 30
0.0
 11
4.35
 21
7.996092795859737
 31
0.0
  0
LINE
  5
152
330
1F
100
AcDbEntity
  8
AM_9
100
AcDbLine
 10
-4.35
 20
7.996092795859737
 30
0.0
 11
-4.35
 21
9.259071227720414
 31
0.0
  0
ARC
  5
153
330
1F
100
AcDbEntity
  8
AM_9
100
AcDbCircle
 10
0.0000000000001332
 20
0.0000000000000844
 30
0.0
 40
12.00000000000016
100
AcDbArc
 50
208.7174349199742
 51
218.0475074536198
  0
ARC
  5
154
330
1F
100
AcDbEntity
  8
AM_9
100
AcDbCircle
 10
-8.770000000000033
 20
-4.804903745133736
 30
0.0
 40
1.999999999999966
100
AcDbArc
 50
179.9999999999993
 51
208.7174393058193
  0
ARC
  5
155
330
1F
100
AcDbEntity
  8
AM_9
100
AcDbCircle
 10
-5.720000000000009
 20
9.559351442435839
 30
0.0
 40
1.49999999999999
100
AcDbArc
 50
120.8949079385337
 51
180.0000000000002
  0
LINE
  5
156
330
1F
100
AcDbEntity
  8
AM_9
100
AcDbLine
 10
8.32
 20
8.200000000000006
 30
0.0
 11
8.32
 21
5.935149534763214
 31
0.0
  0
LINE
  5
157
330
1F
100
AcDbEntity
  8
AM_9
100
AcDbLine
 10
9.450000000000012
 20
7.39577582137262
 30
0.0
 11
10.84295713805794
 21
8.200000000000006
 31
0.0
  0
ARC
  5
158
330
1F
100
AcDbEntity
  8
AM_9
100
AcDbCircle
 10
0.0000000000001776
 20
0.0000000000001439
 30
0.0
 40
11.99999999999977
100
AcDbArc
 50
28.71743482219019
 51
38.04750745361977
  0
LINE
  5
159
330
1F
100
AcDbEntity
  8
AM_9
100
AcDbLine
 10
10.81
 20
4.1
 30
0.0
 11
12.95
 21
4.1
 31
0.0
  0
LINE
  5
15A
330
1F
100
AcDbEntity
  8
AM_9
100
AcDbLine
 10
-9.37
 20
9.91
 30
0.0
 11
-11.57
 21
9.91
 31
0.0
  0
ARC
  5
15B
330
1F
100
AcDbEntity
  8
AM_9
100
AcDbCircle
 10
8.77
 20
-4.80490374513372
 30
0.0
 40
2.0
100
AcDbArc
 50
331.2825659571952
 51
0.0000000000001272
  0
LINE
  5
15C
330
1F
100
AcDbEntity
  8
AM_9
100
AcDbLine
 10
-10.77
 20
4.804903745133717
 30
0.0
 11
-10.77
 21
4.082500000000001
 31
0.0
  0
ARC
  5
15D
330
1F
100
AcDbEntity
  8
AM_9
100
AcDbCircle
 10
-0.0000000000000018
 20
0.0000000000000107
 30
0.0
 40
10.22999999999999
100
AcDbArc
 50
64.83541422483948
 51
115.1645857751605
  0
LINE
  5
15E
330
1F
100
AcDbEntity
  8
AM_9
100
AcDbLine
 10
-10.84295713805794
 20
8.2
 30
0.0
 11
-9.449999999999998
 21
7.395775821372633
 31
0.0
  0
LINE
  5
15F
330
1F
100
AcDbEntity
  8
AM_9
100
AcDbLine
 10
-8.32
 20
8.2
 30
0.0
 11
-10.84295713805794
 21
8.2
 31
0.0
  0
LINE
  5
160
330
1F
100
AcDbEntity
  8
AM_9
100
AcDbLine
 10
-8.32
 20
5.935149534763213
 30
0.0
 11
-8.32
 21
8.2
 31
0.0
  0
ARC
  5
161
330
1F
100
AcDbEntity
  8
AM_9
100
AcDbCircle
 10
-0.0000000000000124
 20
-0.0000000000000009
 30
0.0
 40
10.21999999999999
100
AcDbArc
 50
144.4974842079081
 51
215.5025157920919
  0
LINE
  5
162
330
1F
100
AcDbEntity
  8
AM_9
100
AcDbLine
 10
-8.32
 20
-8.2
 30
0.0
 11
-8.32
 21
-5.935149534763214
 31
0.0
  0
LINE
  5
163
330
1F
100
AcDbEntity
  8
AM_9
100
AcDbLine
 10
-10.84295713805794
 20
-8.2
 30
0.0
 11
-8.32
 21
-8.2
 31
0.0
  0
LINE
  5
164
330
1F
100
AcDbEntity
  8
AM_9
100
AcDbLine
 10
-9.45
 20
-7.395775821372629
 30
0.0
 11
-10.84295713805794
 21
-8.2
 31
0.0
  0
LINE
  5
165
330
1F
100
AcDbEntity
  8
AM_9
100
AcDbLine
 10
6.21656122377187
 20
14.5
 30
0.0
 11
3.683438776228131
 21
14.5
 31
0.0
  0
LINE
  5
166
330
1F
100
AcDbEntity
  8
AM_9
100
AcDbLine
 10
-3.683438776228138
 20
14.5
 30
0.0
 11
-6.216561223771864
 21
14.5
 31
0.0
  0
ARC
  5
167
330
1F
100
AcDbEntity
  8
AM_9
100
AcDbCircle
 10
0.0000000000000444
 20
-0.0000000000000089
 30
0.0
 40
11.99999999999996
100
AcDbArc
 50
321.9524925463801
 51
331.2825659571947
  0
LINE
  5
168
330
1F
100
AcDbEntity
  8
AM_9
100
AcDbLine
 10
10.84295713805794
 20
-8.200000000000006
 30
0.0
 11
9.450000000000003
 21
-7.395775821372625
 31
0.0
  0
LINE
  5
169
330
1F
100
AcDbEntity
  8
AM_9
100
AcDbLine
 10
-13.0
 20
11.375
 30
0.0
 11
-13.0
 21
4.082500000000001
 31
0.0
  0
LINE
  5
16A
330
1F
100
AcDbEntity
  8
AM_9
100
AcDbLine
 10
-13.0
 20
-4.0825
 30
0.0
 11
-13.0
 21
-11.375
 31
0.0
  0
LINE
  5
16B
330
1F
100
AcDbEntity
  8
AM_9
100
AcDbLine
 10
8.32
 20
-5.935149534763214
 30
0.0
 11
8.32
 21
-8.200000000000006
 31
0.0
  0
LINE
  5
16C
330
1F
100
AcDbEntity
  8
AM_9
100
AcDbLine
 10
10.84295713805794
 20
8.200000000000006
 30
0.0
 11
8.32
 21
8.200000000000006
 31
0.0
  0
LINE
  5
16D
330
1F
100
AcDbEntity
  8
AM_9
100
AcDbLine
 10
-11.57
 20
9.03
 30
0.0
 11
-7.519999999999999
 21
9.03
 31
0.0
  0
LINE
  5
16E
330
1F
100
AcDbEntity
  8
AM_9
100
AcDbLine
 10
13.0
 20
4.082500000000001
 30
0.0
 11
13.0
 21
11.375
 31
0.0
  0
LINE
  5
16F
330
1F
100
AcDbEntity
  8
AM_9
100
AcDbLine
 10
13.0
 20
-11.375
 30
0.0
 11
13.0
 21
-4.0825
 31
0.0
  0
ARC
  5
170
330
1F
100
AcDbEntity
  8
AM_9
100
AcDbCircle
 10
11.54999999999999
 20
8.099999999999994
 30
0.0
 40
0.300000000000006
100
AcDbArc
 50
359.9999999999966
 51
89.99999999999899
  0
LINE
  5
171
330
1F
100
AcDbEntity
  8
AM_9
100
AcDbLine
 10
10.55
 20
7.54544826719042
 30
0.0
 11
9.883160439085982
 21
7.160448267190422
 31
0.0
  0
ARC
  5
172
330
1F
100
AcDbEntity
  8
AM_9
100
AcDbCircle
 10
8.770000000000028
 20
4.804903745133734
 30
0.0
 40
1.999999999999972
100
AcDbArc
 50
0.0000000000001018
 51
28.7174387191163
  0
LINE
  5
173
330
1F
100
AcDbEntity
  8
AM_9
100
AcDbLine
 10
-4.189999999999998
 20
13.76
 30
0.0
 11
-6.712742335064393
 21
13.76
 31
0.0
  0
ARC
  5
174
330
1F
100
AcDbEntity
  8
AM_9
100
AcDbCircle
 10
-9.37
 20
11.46
 30
0.0
 40
1.550000000000001
100
AcDbArc
 50
270.0
 51
356.8563964187674
  0
LINE
  5
175
330
1F
100
AcDbEntity
  8
AM_9
100
AcDbLine
 10
-3.89
 20
16.11021416551216
 30
0.0
 11
-6.010000000000001
 21
16.11021416551216
 31
0.0
  0
LINE
  5
176
330
1F
100
AcDbEntity
  8
AM_9
100
AcDbLine
 10
3.89
 20
16.11021416551216
 30
0.0
 11
6.010000000000001
 21
16.11021416551216
 31
0.0
  0
ARC
  5
177
330
1F
100
AcDbEntity
  8
AM_9
100
AcDbCircle
 10
-7.52
 20
9.33
 30
0.0
 40
0.3000000000000007
100
AcDbArc
 50
270.0000000000003
 51
0.0000000000010178
  0
ARC
  5
178
330
1F
100
AcDbEntity
  8
AM_9
100
AcDbCircle
 10
-4.189999999999998
 20
13.46
 30
0.0
 40
0.2999999999999989
100
AcDbArc
 50
359.9999999999997
 51
90.0
  0
LINE
  5
179
330
1F
100
AcDbEntity
  8
AM_0
100
AcDbLine
 10
-3.280847955711018
 20
-13.92504072214576
 30
0.0
 11
-3.89
 21
-14.795
 31
0.0
  0
LINE
  5
17A
330
1F
100
AcDbEntity
  8
AM_0
100
AcDbLine
 10
6.619152044288986
 20
-13.9250407221458
 30
0.0
 11
6.009999999999994
 21
-14.79500000000001
 31
0.0
  0
LINE
  5
17B
330
1F
100
AcDbEntity
  8
AM_0
100
AcDbLine
 10
10.18
 20
-17.925
 30
0.0
 11
6.009999999999995
 21
-17.925
 31
0.0
  0
LINE
  5
17C
330
1F
100
AcDbEntity
  8
AM_0
100
AcDbLine
 10
6.009999999999994
 20
-14.79500000000001
 30
0.0
 11
6.009999999999995
 21
-17.925
 31
0.0
  0
LINE
  5
17D
330
1F
100
AcDbEntity
  8
AM_0
100
AcDbLine
 10
3.890000000000001
 20
-17.925
 30
0.0
 11
3.890000000000001
 21
-14.79500000000001
 31
0.0
  0
LINE
  5
17E
330
1F
100
AcDbEntity
  8
AM_0
100
AcDbLine
 10
3.890000000000001
 20
-17.925
 30
0.0
 11
3.424999999999994
 21
-17.925
 31
0.0
  0
LWPOLYLINE
  5
17F
330
1F
100
AcDbEntity
  8
AM_0
100
AcDbPolyline
 90
       19
 70
     0
 43
0.0
 10
3.425000027877513
 20
-17.925
 10
3.381422156397602
 20
-17.92309735147556
 10
3.338175938620526
 20
-17.91740388134699
 10
3.29559050437635
 20
-17.90796292035977
 10
3.253989954533459
 20
-17.89484631992763
 10
3.213690894395258
 20
-17.87815390529988
 10
3.175000024142635
 20
-17.85801271583098
 10
3.138211804660399
 20
-17.83457603813439
 10
3.103606216512144
 20
-17.80802223947882
 10
3.071446629119105
 20
-17.77855341030566
 10
3.041977796359831
 20
-17.74639382619869
 10
3.015423993845388
 20
-17.71178824101145
 10
2.991987312046536
 20
-17.67500002414264
 10
2.971846118263219
 20
-17.63630915613597
 10
2.955153699141714
 20
-17.59601009785914
 10
2.942037094070694
 20
-17.55440954947888
 10
2.932596128334771
 20
-17.51182411628747
 10
2.926902653383809
 20
-17.46857789914527
 10
2.924999999999995
 20
-17.42500002787752
  0
LINE
  5
180
330
1F
100
AcDbEntity
  8
AM_0
100
AcDbLine
 10
2.924999999999994
 20
-17.425
 30
0.0
 11
2.924999999999995
 21
-17.00500000000001
 31
0.0
  0
LWPOLYLINE
  5
181
330
1F
100
AcDbEntity
  8
AM_0
100
AcDbPolyline
 90
       19
 70
     0
 43
0.0
 10
2.42499999999999
 20
-16.505
 10
2.46857787137382
 20
-16.50690265095413
 10
2.511824088833456
 20
-16.5125961234939
 10
2.554409522551252
 20
-16.52203708685547
 10
2.596010071662826
 20
-16.53515368960705
 10
2.636309130870342
 20
-16.55184610648168
 10
2.674999999999993
 20
-16.57198729810779
 10
2.711788218175517
 20
-16.59542397785551
 10
2.746393804843264
 20
-16.62197777844051
 10
2.778553390593268
 20
-16.65144660940673
 10
2.808022221559484
 20
-16.68360619515673
 10
2.834576022144491
 20
-16.71821178182448
 10
2.858012701892215
 20
-16.75500000000001
 10
2.878153893518321
 20
-16.79369086912966
 10
2.89484631039295
 20
-16.83398992833717
 10
2.907962913144531
 20
-16.87559047744875
 10
2.917403876506101
 20
-16.91817591116654
 10
2.92309734904587
 20
-16.96142212862618
 10
2.924999999999997
 20
-17.00500000000001
  0
LINE
  5
182
330
1F
100
AcDbEntity
  8
AM_0
100
AcDbLine
 10
2.424999999999994
 20
-16.505
 30
0.0
 11
-2.424999999999994
 21
-16.505
 31
0.0
  0
LWPOLYLINE
  5
183
330
1F
100
AcDbEntity
  8
AM_0
100
AcDbPolyline
 90
       19
 70
     0
 43
0.0
 10
-2.924999999999994
 20
-17.005
 10
-2.923097349045866
 20
-16.96142212862616
 10
-2.917403876506097
 20
-16.91817591116653
 10
-2.907962913144527
 20
-16.87559047744874
 10
-2.894846310392946
 20
-16.83398992833716
 10
-2.878153893518316
 20
-16.79369086912965
 10
-2.85801270189221
 20
-16.755
 10
-2.834576022144486
 20
-16.71821178182447
 10
-2.808022221559479
 20
-16.68360619515673
 10
-2.778553390593264
 20
-16.65144660940672
 10
-2.746393804843259
 20
-16.62197777844051
 10
-2.711788218175512
 20
-16.5954239778555
 10
-2.674999999999989
 20
-16.57198729810778
 10
-2.636309130870338
 20
-16.55184610648168
 10
-2.596010071662822
 20
-16.53515368960705
 10
-2.554409522551249
 20
-16.52203708685547
 10
-2.511824088833453
 20
-16.5125961234939
 10
-2.468577871373817
 20
-16.50690265095413
 10
-2.425000014901156
 20
-16.505
  0
LINE
  5
184
330
1F
100
AcDbEntity
  8
AM_0
100
AcDbLine
 10
-2.924999999999994
 20
-17.005
 30
0.0
 11
-2.924999999999997
 21
-17.425
 31
0.0
  0
LWPOLYLINE
  5
185
330
1F
100
AcDbEntity
  8
AM_0
100
AcDbPolyline
 90
       19
 70
     0
 43
0.0
 10
-2.924999999999997
 20
-17.425
 10
-2.926902650954124
 20
-17.46857787137383
 10
-2.932596123493892
 20
-17.51182408883346
 10
-2.942037086855462
 20
-17.55440952255126
 10
-2.955153689607041
 20
-17.59601007166283
 10
-2.971846106481669
 20
-17.63630913087035
 10
-2.991987298107775
 20
-17.675
 10
-3.015423977855498
 20
-17.71178821817552
 10
-3.041977778440504
 20
-17.74639380484327
 10
-3.071446609406719
 20
-17.77855339059327
 10
-3.103606195156722
 20
-17.80802222155949
 10
-3.138211781824468
 20
-17.83457602214449
 10
-3.174999999999991
 20
-17.85801270189222
 10
-3.213690869129641
 20
-17.87815389351832
 10
-3.253989928337156
 20
-17.89484631039295
 10
-3.295590477448729
 20
-17.90796291314453
 10
-3.338175911166524
 20
-17.9174038765061
 10
-3.38142212862616
 20
-17.92309734904587
 10
-3.424999999999988
 20
-17.925
  0
LINE
  5
186
330
1F
100
AcDbEntity
  8
AM_0
100
AcDbLine
 10
-3.424999999999994
 20
-17.925
 30
0.0
 11
-3.890000000000001
 21
-17.925
 31
0.0
  0
LINE
  5
187
330
1F
100
AcDbEntity
  8
AM_0
100
AcDbLine
 10
-3.89
 20
-14.795
 30
0.0
 11
-3.890000000000001
 21
-17.925
 31
0.0
  0
LINE
  5
188
330
1F
100
AcDbEntity
  8
AM_0
100
AcDbLine
 10
-6.009999999999995
 20
-17.925
 30
0.0
 11
-6.009999999999995
 21
-14.795
 31
0.0
  0
LINE
  5
189
330
1F
100
AcDbEntity
  8
AM_0
100
AcDbLine
 10
-6.009999999999995
 20
-17.925
 30
0.0
 11
-10.18
 21
-17.925
 31
0.0
  0
LWPOLYLINE
  5
18A
330
1F
100
AcDbEntity
  8
AM_0
100
AcDbPolyline
 90
       19
 70
     0
 43
0.0
 10
-10.18000004998001
 20
-17.925
 10
-10.22357792116365
 20
-17.92309734468983
 10
-10.26682413805417
 20
-17.91740386782716
 10
-10.30940957082825
 20
-17.90796290020876
 10
-10.35101011862868
 20
-17.89484629329878
 10
-10.39130917616763
 20
-17.87815387239586
 10
-10.43000004328396
 20
-17.85801267690221
 10
-10.46678825911675
 20
-17.83457599347714
 10
-10.50139384313018
 20
-17.80802218943295
 10
-10.53355342593448
 20
-17.77855335525207
 10
-10.56302225368602
 20
-17.74639376655636
 10
-10.58957605081185
 20
-17.7117881772343
 10
-10.61301272688222
 20
-17.67499995671604
 10
-10.63315391464079
 20
-17.63630908557307
 10
-10.64984632748712
 20
-17.59601002469699
 10
-10.66296292608031
 20
-17.55440947427428
 10
-10.67240388518504
 20
-17.51182403961276
 10
-10.67809735340192
 20
-17.46857782158401
 10
-10.68
 20
-17.425
  0
LINE
  5
18B
330
1F
100
AcDbEntity
  8
AM_0
100
AcDbLine
 10
-10.68
 20
-17.425
 30
0.0
 11
-10.68
 21
-17.005
 31
0.0
  0
LWPOLYLINE
  5
18C
330
1F
100
AcDbEntity
  8
AM_0
100
AcDbPolyline
 90
       19
 70
     0
 43
0.0
 10
-11.18
 20
-16.505
 10
-11.13642212862617
 20
-16.50690265095413
 10
-11.09317591116653
 20
-16.5125961234939
 10
-11.05059047744874
 20
-16.52203708685547
 10
-11.00898992833717
 20
-16.53515368960705
 10
-10.96869086912965
 20
-16.55184610648168
 10
-10.93
 20
-16.57198729810778
 10
-10.89321178182448
 20
-16.59542397785551
 10
-10.85860619515673
 20
-16.62197777844051
 10
-10.82644660940673
 20
-16.65144660940673
 10
-10.79697777844051
 20
-16.68360619515673
 10
-10.7704239778555
 20
-16.71821178182448
 10
-10.74698729810778
 20
-16.755
 10
-10.72684610648168
 20
-16.79369086912966
 10
-10.71015368960705
 20
-16.83398992833717
 10
-10.69703708685547
 20
-16.87559047744874
 10
-10.6875961234939
 20
-16.91817591116654
 10
-10.68190265095413
 20
-16.96142212862617
 10
-10.68
 20
-17.005
  0
LINE
  5
18D
330
1F
100
AcDbEntity
  8
AM_0
100
AcDbLine
 10
-11.18
 20
-16.505
 30
0.0
 11
-13.0
 21
-16.505
 31
0.0
  0
LWPOLYLINE
  5
18E
330
1F
100
AcDbEntity
  8
AM_0
100
AcDbPolyline
 90
        8
 70
     0
 43
0.0
 10
-14.9
 20
-15.75
 10
-14.88477879236698
 20
-16.09862297099063
 10
-14.83923101204883
 20
-16.44459271066772
 10
-14.76370330515627
 20
-16.78527618041008
 10
-14.65877048314364
 20
-17.11808057330267
 10
-14.5252311481466
 20
-17.44047304696279
 10
-14.36410161513776
 20
-17.75
 10
-14.25033609073215
 20
-17.93523410167827
  0
LINE
  5
18F
330
1F
100
AcDbEntity
  8
AM_0
100
AcDbLine
 10
14.25033609073215
 20
-17.93523410167827
 30
0.0
 11
-14.25033609073215
 21
-17.93523410167827
 31
0.0
  0
LWPOLYLINE
  5
190
330
1F
100
AcDbEntity
  8
AM_0
100
AcDbPolyline
 90
        8
 70
     0
 43
0.0
 10
14.25033609073215
 20
-17.93523410167827
 10
14.42804275162207
 20
-17.63491759573913
 10
14.57889887688169
 20
-17.32025572875204
 10
14.70175636030837
 20
-16.99364326752283
 10
14.79568018226985
 20
-16.65756593009542
 10
14.85995552576824
 20
-16.3145814679367
 10
14.89409321662902
 20
-15.96730019990338
 10
14.9
 20
-15.75
  0
LINE
  5
191
330
1F
100
AcDbEntity
  8
AM_0
100
AcDbLine
 10
13.0
 20
-16.505
 30
0.0
 11
11.18
 21
-16.50500000000001
 31
0.0
  0
LWPOLYLINE
  5
192
330
1F
100
AcDbEntity
  8
AM_0
100
AcDbPolyline
 90
       19
 70
     0
 43
0.0
 10
10.68
 20
-17.00500000000001
 10
10.68190265095413
 20
-16.96142212862618
 10
10.6875961234939
 20
-16.91817591116654
 10
10.69703708685547
 20
-16.87559047744875
 10
10.71015368960705
 20
-16.83398992833717
 10
10.72684610648168
 20
-16.79369086912966
 10
10.74698729810778
 20
-16.75500000000001
 10
10.77042397785551
 20
-16.71821178182448
 10
10.79697777844051
 20
-16.68360619515673
 10
10.82644660940673
 20
-16.65144660940673
 10
10.85860619515674
 20
-16.62197777844052
 10
10.89321178182448
 20
-16.59542397785551
 10
10.93
 20
-16.57198729810779
 10
10.96869086912966
 20
-16.55184610648168
 10
11.00898992833717
 20
-16.53515368960705
 10
11.05059047744875
 20
-16.52203708685547
 10
11.09317591116654
 20
-16.5125961234939
 10
11.13642212862618
 20
-16.50690265095414
 10
11.18
 20
-16.50500000000001
  0
LINE
  5
193
330
1F
100
AcDbEntity
  8
AM_0
100
AcDbLine
 10
10.68
 20
-17.00500000000001
 30
0.0
 11
10.68
 21
-17.425
 31
0.0
  0
LWPOLYLINE
  5
194
330
1F
100
AcDbEntity
  8
AM_0
100
AcDbPolyline
 90
       19
 70
     0
 43
0.0
 10
10.68
 20
-17.425
 10
10.67809734904587
 20
-17.46857787137383
 10
10.6724038765061
 20
-17.51182408883346
 10
10.66296291314453
 20
-17.55440952255126
 10
10.64984631039295
 20
-17.59601007166283
 10
10.63315389351832
 20
-17.63630913087035
 10
10.61301270189222
 20
-17.675
 10
10.5895760221445
 20
-17.71178821817552
 10
10.56302222155949
 20
-17.74639380484327
 10
10.53355339059327
 20
-17.77855339059327
 10
10.50139380484327
 20
-17.80802222155949
 10
10.46678821817552
 20
-17.83457602214449
 10
10.43
 20
-17.85801270189222
 10
10.39130913087035
 20
-17.87815389351832
 10
10.35101007166284
 20
-17.89484631039295
 10
10.30940952255126
 20
-17.90796291314453
 10
10.26682408883347
 20
-17.9174038765061
 10
10.22357787137383
 20
-17.92309734904587
 10
10.18000000000001
 20
-17.925
  0
LINE
  5
195
330
1F
100
AcDbEntity
  8
AM_0
100
AcDbLine
 10
14.9
 20
-15.75
 30
0.0
 11
14.9
 21
15.75
 31
0.0
  0
LINE
  5
196
330
1F
100
AcDbEntity
  8
AM_0
100
AcDbLine
 10
-14.9
 20
15.75
 30
0.0
 11
-14.9
 21
-15.75
 31
0.0
  0
LINE
  5
197
330
1F
100
AcDbEntity
  8
AM_0
100
AcDbLine
 10
3.280847955711001
 20
13.92504072214579
 30
0.0
 11
3.89
 21
14.79500000000001
 31
0.0
  0
LINE
  5
198
330
1F
100
AcDbEntity
  8
AM_0
100
AcDbLine
 10
-6.619152044288996
 20
13.92504072214579
 30
0.0
 11
-6.010000000000002
 21
14.795
 31
0.0
  0
LINE
  5
199
330
1F
100
AcDbEntity
  8
AM_0
100
AcDbLine
 10
-10.18
 20
17.925
 30
0.0
 11
-6.010000000000001
 21
17.925
 31
0.0
  0
LINE
  5
19A
330
1F
100
AcDbEntity
  8
AM_0
100
AcDbLine
 10
-6.010000000000002
 20
14.795
 30
0.0
 11
-6.010000000000001
 21
17.925
 31
0.0
  0
LINE
  5
19B
330
1F
100
AcDbEntity
  8
AM_0
100
AcDbLine
 10
-3.889999999999999
 20
17.925
 30
0.0
 11
-3.89
 21
14.795
 31
0.0
  0
LINE
  5
19C
330
1F
100
AcDbEntity
  8
AM_0
100
AcDbLine
 10
-3.889999999999999
 20
17.925
 30
0.0
 11
-3.425
 21
17.925
 31
0.0
  0
LWPOLYLINE
  5
19D
330
1F
100
AcDbEntity
  8
AM_0
100
AcDbPolyline
 90
       19
 70
     0
 43
0.0
 10
-3.425000038714349
 20
17.925
 10
-3.381422167193201
 20
17.92309735242005
 10
-3.338175949292727
 20
17.91740388322878
 10
-3.295590514843931
 20
17.90796292316455
 10
-3.253989964716756
 20
17.89484632363405
 10
-3.213690904216769
 20
17.87815390987972
 10
-3.175000033527613
 20
17.85801272124939
 10
-3.138211813537418
 20
17.83457604435014
 10
-3.103606224813645
 20
17.8080222464446
 10
-3.071446636781908
 20
17.77855341796846
 10
-3.041977803325618
 20
17.74639383450019
 10
-3.015424000061146
 20
17.71178824988847
 10
-2.991987317464958
 20
17.67500003352762
 10
-2.971846122843069
 20
17.63630916595747
 10
-2.955153702848136
 20
17.59601010804243
 10
-2.942037096875479
 20
17.55440955994646
 10
-2.932596130216575
 20
17.51182412695967
 10
-2.926902654328307
 20
17.46857790994087
 10
-2.925000000000002
 20
17.42500003871436
  0
LINE
  5
19E
330
1F
100
AcDbEntity
  8
AM_0
100
AcDbLine
 10
-2.925
 20
17.425
 30
0.0
 11
-2.924999999999999
 21
17.005
 31
0.0
  0
LWPOLYLINE
  5
19F
330
1F
100
AcDbEntity
  8
AM_0
100
AcDbPolyline
 90
       19
 70
     0
 43
0.0
 10
-2.425000010536712
 20
16.505
 10
-2.468577881870446
 20
16.50690265187247
 10
-2.5118240992101
 20
16.51259612532358
 10
-2.554409532728942
 20
16.52203708958257
 10
-2.596010081564105
 20
16.53515369321082
 10
-2.636309140419854
 20
16.55184611093468
 10
-2.67500000912506
 20
16.57198730337614
 10
-2.711788226806692
 20
16.59542398389912
 10
-2.746393812914859
 20
16.62197778521338
 10
-2.778553398043854
 20
16.65144661685731
 10
-2.808022228332357
 20
16.68360620322832
 10
-2.834576028188105
 20
16.71821179045565
 10
-2.858012707160575
 20
16.75500000912506
 10
-2.878153897971332
 20
16.79369087867916
 10
-2.894846313996722
 20
16.83398993823844
 10
-2.907962915871636
 20
16.87559048762643
 10
-2.917403878335785
 20
16.91817592154317
 10
-2.923097349964208
 20
16.96142213912279
 10
-2.925
 20
17.005
  0
LINE
  5
1A0
330
1F
100
AcDbEntity
  8
AM_0
100
AcDbLine
 10
-2.425
 20
16.505
 30
0.0
 11
2.425
 21
16.505
 31
0.0
  0
LWPOLYLINE
  5
1A1
330
1F
100
AcDbEntity
  8
AM_0
100
AcDbPolyline
 90
       19
 70
     0
 43
0.0
 10
2.925
 20
17.00500000000001
 10
2.923097349045873
 20
16.96142212862618
 10
2.917403876506105
 20
16.91817591116654
 10
2.907962913144535
 20
16.87559047744875
 10
2.894846310392955
 20
16.83398992833718
 10
2.878153893518326
 20
16.79369086912966
 10
2.858012701892221
 20
16.75500000000001
 10
2.834576022144497
 20
16.71821178182448
 10
2.808022221559491
 20
16.68360619515674
 10
2.778553390593275
 20
16.65144660940673
 10
2.746393804843271
 20
16.62197777844052
 10
2.711788218175525
 20
16.59542397785551
 10
2.675000000000001
 20
16.57198729810779
 10
2.636309130870351
 20
16.55184610648168
 10
2.596010071662835
 20
16.53515368960705
 10
2.554409522551262
 20
16.52203708685547
 10
2.511824088833466
 20
16.5125961234939
 10
2.468577871373829
 20
16.50690265095413
 10
2.4250000235608
 20
16.505
  0
LINE
  5
1A2
330
1F
100
AcDbEntity
  8
AM_0
100
AcDbLine
 10
2.925
 20
17.00500000000001
 30
0.0
 11
2.925000000000001
 21
17.425
 31
0.0
  0
LWPOLYLINE
  5
1A3
330
1F
100
AcDbEntity
  8
AM_0
100
AcDbPolyline
 90
       19
 70
     0
 43
0.0
 10
2.925000000000001
 20
17.425
 10
2.926902650954128
 20
17.46857787137383
 10
2.932596123493896
 20
17.51182408883346
 10
2.942037086855465
 20
17.55440952255126
 10
2.955153689607044
 20
17.59601007166284
 10
2.971846106481673
 20
17.63630913087035
 10
2.991987298107778
 20
17.675
 10
3.0154239778555
 20
17.71178821817552
 10
3.041977778440506
 20
17.74639380484327
 10
3.071446609406721
 20
17.77855339059327
 10
3.103606195156724
 20
17.80802222155949
 10
3.138211781824469
 20
17.83457602214449
 10
3.174999999999992
 20
17.85801270189222
 10
3.213690869129641
 20
17.87815389351832
 10
3.253989928337155
 20
17.89484631039295
 10
3.295590477448729
 20
17.90796291314453
 10
3.338175911166523
 20
17.9174038765061
 10
3.381422128626159
 20
17.92309734904587
 10
3.424999999999987
 20
17.925
  0
LINE
  5
1A4
330
1F
100
AcDbEntity
  8
AM_0
100
AcDbLine
 10
3.425000000000001
 20
17.925
 30
0.0
 11
3.890000000000001
 21
17.925
 31
0.0
  0
LINE
  5
1A5
330
1F
100
AcDbEntity
  8
AM_0
100
AcDbLine
 10
3.89
 20
14.79500000000001
 30
0.0
 11
3.890000000000001
 21
17.925
 31
0.0
  0
LINE
  5
1A6
330
1F
100
AcDbEntity
  8
AM_0
100
AcDbLine
 10
6.010000000000001
 20
17.925
 30
0.0
 11
6.010000000000001
 21
14.79500000000001
 31
0.0
  0
LINE
  5
1A7
330
1F
100
AcDbEntity
  8
AM_0
100
AcDbLine
 10
6.010000000000001
 20
17.925
 30
0.0
 11
10.18
 21
17.925
 31
0.0
  0
LWPOLYLINE
  5
1A8
330
1F
100
AcDbEntity
  8
AM_0
100
AcDbPolyline
 90
       19
 70
     0
 43
0.0
 10
10.18000004885672
 20
17.925
 10
10.22357792004464
 20
17.92309734478773
 10
10.26682413694794
 20
17.91740386802223
 10
10.30940956974323
 20
17.90796290049948
 10
10.35101011757314
 20
17.89484629368297
 10
10.39130917514958
 20
17.87815387287058
 10
10.43000004231116
 20
17.85801267746386
 10
10.46678825819661
 20
17.83457599412143
 10
10.50139384226969
 20
17.80802219015499
 10
10.53355342514019
 20
17.77855335604636
 10
10.56302225296398
 20
17.74639376741685
 10
10.58957605016756
 20
17.71178817815444
 10
10.61301272632058
 20
17.67499995768884
 10
10.63315391416607
 20
17.63630908659112
 10
10.64984632710294
 20
17.59601002575253
 10
10.66296292578958
 20
17.55440947535929
 10
10.67240388498998
 20
17.51182404071898
 10
10.67809735330401
 20
17.46857782270302
 10
10.68
 20
17.425
  0
LINE
  5
1A9
330
1F
100
AcDbEntity
  8
AM_0
100
AcDbLine
 10
10.68
 20
17.425
 30
0.0
 11
10.68
 21
17.00500000000001
 31
0.0
  0
LWPOLYLINE
  5
1AA
330
1F
100
AcDbEntity
  8
AM_0
100
AcDbPolyline
 90
       19
 70
     0
 43
0.0
 10
11.18
 20
16.505
 10
11.13642212862617
 20
16.50690265095413
 10
11.09317591116654
 20
16.5125961234939
 10
11.05059047744874
 20
16.52203708685547
 10
11.00898992833717
 20
16.53515368960705
 10
10.96869086912965
 20
16.55184610648168
 10
10.93
 20
16.57198729810779
 10
10.89321178182447
 20
16.59542397785551
 10
10.85860619515673
 20
16.62197777844051
 10
10.82644660940672
 20
16.65144660940673
 10
10.79697777844051
 20
16.68360619515673
 10
10.7704239778555
 20
16.71821178182448
 10
10.74698729810778
 20
16.75500000000001
 10
10.72684610648167
 20
16.79369086912966
 10
10.71015368960704
 20
16.83398992833717
 10
10.69703708685546
 20
16.87559047744875
 10
10.68759612349389
 20
16.91817591116654
 10
10.68190265095412
 20
16.96142212862618
 10
10.67999999999999
 20
17.00500000000001
  0
LINE
  5
1AB
330
1F
100
AcDbEntity
  8
AM_0
100
AcDbLine
 10
11.18
 20
16.505
 30
0.0
 11
13.0
 21
16.505
 31
0.0
  0
LWPOLYLINE
  5
1AC
330
1F
100
AcDbEntity
  8
AM_0
100
AcDbPolyline
 90
        8
 70
     0
 43
0.0
 10
14.9
 20
15.75
 10
14.88477879236698
 20
16.09862297099063
 10
14.83923101204883
 20
16.44459271066772
 10
14.76370330515627
 20
16.78527618041008
 10
14.65877048314363
 20
17.11808057330267
 10
14.5252311481466
 20
17.4404730469628
 10
14.36410161513775
 20
17.75
 10
14.25033609073215
 20
17.93523410167827
  0
LINE
  5
1AD
330
1F
100
AcDbEntity
  8
AM_0
100
AcDbLine
 10
14.25033609073215
 20
17.93523410167827
 30
0.0
 11
-14.25033609073215
 21
17.93523410167827
 31
0.0
  0
LWPOLYLINE
  5
1AE
330
1F
100
AcDbEntity
  8
AM_0
100
AcDbPolyline
 90
        8
 70
     0
 43
0.0
 10
-14.25033609073215
 20
17.93523410167827
 10
-14.42804275162207
 20
17.63491759573913
 10
-14.57889887688169
 20
17.32025572875204
 10
-14.70175636030837
 20
16.99364326752283
 10
-14.79568018226984
 20
16.65756593009542
 10
-14.85995552576824
 20
16.3145814679367
 10
-14.89409321662902
 20
15.96730019990338
 10
-14.9
 20
15.75
  0
LINE
  5
1AF
330
1F
100
AcDbEntity
  8
AM_0
100
AcDbLine
 10
-13.0
 20
16.505
 30
0.0
 11
-11.18
 21
16.505
 31
0.0
  0
LWPOLYLINE
  5
1B0
330
1F
100
AcDbEntity
  8
AM_0
100
AcDbPolyline
 90
       19
 70
     0
 43
0.0
 10
-10.68
 20
17.005
 10
-10.68190265095413
 20
16.96142212862617
 10
-10.6875961234939
 20
16.91817591116654
 10
-10.69703708685547
 20
16.87559047744874
 10
-10.71015368960705
 20
16.83398992833717
 10
-10.72684610648168
 20
16.79369086912966
 10
-10.74698729810778
 20
16.755
 10
-10.7704239778555
 20
16.71821178182448
 10
-10.79697777844051
 20
16.68360619515673
 10
-10.82644660940673
 20
16.65144660940673
 10
-10.85860619515673
 20
16.62197777844051
 10
-10.89321178182448
 20
16.59542397785551
 10
-10.93
 20
16.57198729810779
 10
-10.96869086912965
 20
16.55184610648168
 10
-11.00898992833717
 20
16.53515368960705
 10
-11.05059047744874
 20
16.52203708685547
 10
-11.09317591116653
 20
16.5125961234939
 10
-11.13642212862617
 20
16.50690265095413
 10
-11.17999998946329
 20
16.505
  0
LINE
  5
1B1
330
1F
100
AcDbEntity
  8
AM_0
100
AcDbLine
 10
-10.68
 20
17.005
 30
0.0
 11
-10.68
 21
17.425
 31
0.0
  0
LWPOLYLINE
  5
1B2
330
1F
100
AcDbEntity
  8
AM_0
100
AcDbPolyline
 90
       19
 70
     0
 43
0.0
 10
-10.68
 20
17.425
 10
-10.67809734904587
 20
17.46857787137383
 10
-10.6724038765061
 20
17.51182408883346
 10
-10.66296291314453
 20
17.55440952255126
 10
-10.64984631039295
 20
17.59601007166284
 10
-10.63315389351832
 20
17.63630913087035
 10
-10.61301270189222
 20
17.675
 10
-10.5895760221445
 20
17.71178821817552
 10
-10.56302222155949
 20
17.74639380484327
 10
-10.53355339059327
 20
17.77855339059327
 10
-10.50139380484327
 20
17.80802222155949
 10
-10.46678821817552
 20
17.83457602214449
 10
-10.43
 20
17.85801270189222
 10
-10.39130913087035
 20
17.87815389351832
 10
-10.35101007166284
 20
17.89484631039295
 10
-10.30940952255126
 20
17.90796291314453
 10
-10.26682408883347
 20
17.9174038765061
 10
-10.22357787137383
 20
17.92309734904587
 10
-10.18000000000001
 20
17.925
  0
LINE
  5
1B4
330
1F
100
AcDbEntity
  8
AM_4
100
AcDbLine
 10
-13.0
 20
-14.78867513459481
 30
0.0
 11
-14.9
 21
-14.78867513459481
 31
0.0
  0
LINE
  5
1B5
330
1F
100
AcDbEntity
  8
AM_0
100
AcDbLine
 10
-6.620821044687761
 20
-13.92264973081037
 30
0.0
 11
-6.009999999999995
 21
-14.795
 31
0.0
  0
LINE
  5
1B6
330
1F
100
AcDbEntity
  8
AM_4
100
AcDbLine
 10
-3.88557128156513
 20
-14.78867513459481
 30
0.0
 11
-6.014428718434877
 21
-14.78867513459481
 31
0.0
  0
LINE
  5
1B7
330
1F
100
AcDbEntity
  8
AM_4
100
AcDbLine
 10
14.9
 20
-14.78867513459481
 30
0.0
 11
13.0
 21
-14.78867513459481
 31
0.0
  0
LINE
  5
1B8
330
1F
100
AcDbEntity
  8
AM_0
100
AcDbLine
 10
3.279178955312263
 20
-13.92264973081037
 30
0.0
 11
3.890000000000001
 21
-14.79500000000001
 31
0.0
  0
LINE
  5
1B9
330
1F
100
AcDbEntity
  8
AM_4
100
AcDbLine
 10
6.014428718434877
 20
-14.78867513459481
 30
0.0
 11
3.885571281565116
 21
-14.78867513459481
 31
0.0
  0
LINE
  5
1BA
330
1F
100
AcDbEntity
  8
AM_0
100
AcDbLine
 10
6.620821044687765
 20
13.92264973081037
 30
0.0
 11
6.010000000000001
 21
14.79500000000001
 31
0.0
  0
LINE
  5
1BB
330
1F
100
AcDbEntity
  8
AM_4
100
AcDbLine
 10
6.014428718434885
 20
14.78867513459481
 30
0.0
 11
3.885571281565121
 21
14.78867513459481
 31
0.0
  0
LINE
  5
1BC
330
1F
100
AcDbEntity
  8
AM_4
100
AcDbLine
 10
14.9
 20
14.78867513459481
 30
0.0
 11
13.0
 21
14.78867513459481
 31
0.0
  0
LINE
  5
1BD
330
1F
100
AcDbEntity
  8
AM_4
100
AcDbLine
 10
-13.0
 20
14.78867513459481
 30
0.0
 11
-14.9
 21
14.78867513459481
 31
0.0
  0
LINE
  5
1BE
330
1F
100
AcDbEntity
  8
AM_0
100
AcDbLine
 10
13.095
 20
-4.0825
 30
0.0
 11
13.095
 21
-2.837499999999999
 31
0.0
  0
LINE
  5
1BF
330
1F
100
AcDbEntity
  8
AM_0
100
AcDbLine
 10
6.799999999999992
 20
-13.35146428579475
 30
0.0
 11
6.79999999999999
 21
-11.375
 31
0.0
  0
LINE
  5
1C0
330
1F
100
AcDbEntity
  8
AM_0
100
AcDbLine
 10
10.605
 20
-4.0825
 30
0.0
 11
13.095
 21
-4.0825
 31
0.0
  0
LINE
  5
1C1
330
1F
100
AcDbEntity
  8
AM_0
100
AcDbLine
 10
13.0
 20
11.375
 30
0.0
 11
6.800000000000001
 21
11.375
 31
0.0
  0
LINE
  5
1C2
330
1F
100
AcDbEntity
  8
AM_0
100
AcDbLine
 10
6.79999999999999
 20
-11.375
 30
0.0
 11
13.0
 21
-11.375
 31
0.0
  0
CIRCLE
  5
1C3
330
1F
100
AcDbEntity
  8
AM_0
100
AcDbCircle
 10
0.0
 20
0.0
 30
0.0
 40
9.000000000000002
  0
ARC
  5
1C4
330
1F
100
AcDbEntity
  8
AM_0
100
AcDbCircle
 10
-4.100000000000016
 20
13.35146428579474
 30
0.0
 40
1.000000000000015
100
AcDbArc
 50
0.0000000000001018
 51
34.83293187403101
  0
LINE
  5
1C5
330
1F
100
AcDbEntity
  8
AM_0
100
AcDbLine
 10
-13.095
 20
-4.0825
 30
0.0
 11
-10.605
 21
-4.0825
 31
0.0
  0
LINE
  5
1C6
330
1F
100
AcDbEntity
  8
AM_0
100
AcDbLine
 10
13.0
 20
16.505
 30
0.0
 11
13.0
 21
11.375
 31
0.0
  0
LINE
  5
1C7
330
1F
100
AcDbEntity
  8
AM_0
100
AcDbLine
 10
13.095
 20
-2.837499999999999
 30
0.0
 11
10.605
 21
-2.837499999999999
 31
0.0
  0
LINE
  5
1C8
330
1F
100
AcDbEntity
  8
AM_0
100
AcDbLine
 10
10.605
 20
-2.837499999999999
 30
0.0
 11
10.605
 21
-4.0825
 31
0.0
  0
LINE
  5
1C9
330
1F
100
AcDbEntity
  8
AM_0
100
AcDbLine
 10
-10.605
 20
4.082500000000001
 30
0.0
 11
-13.095
 21
4.082500000000001
 31
0.0
  0
LINE
  5
1CA
330
1F
100
AcDbEntity
  8
AM_0
100
AcDbLine
 10
-10.605
 20
2.837500000000003
 30
0.0
 11
-10.605
 21
4.082500000000001
 31
0.0
  0
LINE
  5
1CB
330
1F
100
AcDbEntity
  8
AM_0
100
AcDbLine
 10
-13.095
 20
2.837500000000001
 30
0.0
 11
-10.605
 21
2.837500000000003
 31
0.0
  0
LINE
  5
1CC
330
1F
100
AcDbEntity
  8
AM_0
100
AcDbLine
 10
-13.095
 20
4.082500000000001
 30
0.0
 11
-13.095
 21
2.837500000000001
 31
0.0
  0
LINE
  5
1CD
330
1F
100
AcDbEntity
  8
AM_0
100
AcDbLine
 10
13.095
 20
4.082500000000001
 30
0.0
 11
10.605
 21
4.082500000000001
 31
0.0
  0
LINE
  5
1CE
330
1F
100
AcDbEntity
  8
AM_0
100
AcDbLine
 10
13.095
 20
2.837500000000003
 30
0.0
 11
13.095
 21
4.082500000000001
 31
0.0
  0
LINE
  5
1CF
330
1F
100
AcDbEntity
  8
AM_0
100
AcDbLine
 10
10.605
 20
2.837500000000001
 30
0.0
 11
13.095
 21
2.837500000000003
 31
0.0
  0
LINE
  5
1D0
330
1F
100
AcDbEntity
  8
AM_0
100
AcDbLine
 10
10.605
 20
4.082500000000001
 30
0.0
 11
10.605
 21
2.837500000000001
 31
0.0
  0
LINE
  5
1D1
330
1F
100
AcDbEntity
  8
AM_0
100
AcDbLine
 10
-10.605
 20
-2.837499999999999
 30
0.0
 11
-13.095
 21
-2.837499999999999
 31
0.0
  0
LINE
  5
1D2
330
1F
100
AcDbEntity
  8
AM_0
100
AcDbLine
 10
-10.605
 20
-4.0825
 30
0.0
 11
-10.605
 21
-2.837499999999999
 31
0.0
  0
LINE
  5
1D3
330
1F
100
AcDbEntity
  8
AM_0
100
AcDbLine
 10
-13.095
 20
-2.837499999999999
 30
0.0
 11
-13.095
 21
-4.0825
 31
0.0
  0
ARC
  5
1D4
330
1F
100
AcDbEntity
  8
AM_0
100
AcDbCircle
 10
-5.80000000000001
 20
-13.35146428579476
 30
0.0
 40
0.999999999999984
100
AcDbArc
 50
179.999999999999
 51
214.8329318740307
  0
LINE
  5
1D5
330
1F
100
AcDbEntity
  8
AM_4
100
AcDbLine
 10
-3.279178955312265
 20
-13.92264973081037
 30
0.0
 11
-6.620821044687761
 21
-13.92264973081037
 31
0.0
  0
ARC
  5
1D6
330
1F
100
AcDbEntity
  8
AM_0
100
AcDbCircle
 10
-4.100000000000002
 20
-13.35146428579472
 30
0.0
 40
0.9999999999999989
100
AcDbArc
 50
325.1670681259668
 51
359.9999999999986
  0
LINE
  5
1D7
330
1F
100
AcDbEntity
  8
AM_0
100
AcDbLine
 10
-3.100000000000004
 20
-13.35146428579474
 30
0.0
 11
-3.100000000000002
 21
-11.375
 31
0.0
  0
LINE
  5
1D8
330
1F
100
AcDbEntity
  8
AM_0
100
AcDbLine
 10
-3.100000000000002
 20
-11.375
 30
0.0
 11
3.100000000000005
 21
-11.375
 31
0.0
  0
LINE
  5
1D9
330
1F
100
AcDbEntity
  8
AM_0
100
AcDbLine
 10
3.100000000000005
 20
-11.375
 30
0.0
 11
3.100000000000003
 21
-13.35146428579474
 31
0.0
  0
ARC
  5
1DA
330
1F
100
AcDbEntity
  8
AM_0
100
AcDbCircle
 10
4.099999999999994
 20
-13.35146428579472
 30
0.0
 40
0.9999999999999916
100
AcDbArc
 50
180.0000000000009
 51
214.8329318740332
  0
LINE
  5
1DB
330
1F
100
AcDbEntity
  8
AM_4
100
AcDbLine
 10
6.620821044687761
 20
-13.92264973081037
 30
0.0
 11
3.279178955312263
 21
-13.92264973081037
 31
0.0
  0
ARC
  5
1DC
330
1F
100
AcDbEntity
  8
AM_0
100
AcDbCircle
 10
5.800000000000031
 20
-13.35146428579478
 30
0.0
 40
0.9999999999999596
100
AcDbArc
 50
325.1670681259693
 51
0.0000000000014249
  0
LINE
  5
1DD
330
1F
100
AcDbEntity
  8
AM_0
100
AcDbLine
 10
13.0
 20
-11.375
 30
0.0
 11
13.0
 21
-16.505
 31
0.0
  0
LINE
  5
1DE
330
1F
100
AcDbEntity
  8
AM_4
100
AcDbLine
 10
13.0
 20
-13.92264973081036
 30
0.0
 11
14.9
 21
-13.92264973081036
 31
0.0
  0
LINE
  5
1DF
330
1F
100
AcDbEntity
  8
AM_4
100
AcDbLine
 10
13.0
 20
13.92264973081036
 30
0.0
 11
14.9
 21
13.92264973081037
 31
0.0
  0
LINE
  5
1E0
330
1F
100
AcDbEntity
  8
AM_0
100
AcDbLine
 10
6.800000000000001
 20
11.375
 30
0.0
 11
6.800000000000001
 21
13.35146428579475
 31
0.0
  0
ARC
  5
1E1
330
1F
100
AcDbEntity
  8
AM_0
100
AcDbCircle
 10
5.799999999999965
 20
13.35146428579474
 30
0.0
 40
1.000000000000036
100
AcDbArc
 50
0.0000000000006107
 51
34.8329318740301
  0
LINE
  5
1E2
330
1F
100
AcDbEntity
  8
AM_4
100
AcDbLine
 10
6.620821044687765
 20
13.92264973081037
 30
0.0
 11
3.279178955312234
 21
13.92264973081037
 31
0.0
  0
ARC
  5
1E3
330
1F
100
AcDbEntity
  8
AM_0
100
AcDbCircle
 10
4.1
 20
13.35146428579476
 30
0.0
 40
0.9999999999999989
100
AcDbArc
 50
145.1670681259696
 51
180.0000000000011
  0
LINE
  5
1E4
330
1F
100
AcDbEntity
  8
AM_0
100
AcDbLine
 10
3.100000000000001
 20
13.35146428579474
 30
0.0
 11
3.100000000000001
 21
11.375
 31
0.0
  0
LINE
  5
1E5
330
1F
100
AcDbEntity
  8
AM_0
100
AcDbLine
 10
3.100000000000001
 20
11.375
 30
0.0
 11
-3.100000000000002
 21
11.375
 31
0.0
  0
LINE
  5
1E6
330
1F
100
AcDbEntity
  8
AM_0
100
AcDbLine
 10
-3.100000000000002
 20
11.375
 30
0.0
 11
-3.100000000000001
 21
13.35146428579474
 31
0.0
  0
ARC
  5
1E7
330
1F
100
AcDbEntity
  8
AM_0
100
AcDbCircle
 10
-5.800000000000018
 20
13.35146428579474
 30
0.0
 40
0.9999999999999832
100
AcDbArc
 50
145.1670681259679
 51
179.9999999999999
  0
LINE
  5
1E8
330
1F
100
AcDbEntity
  8
AM_0
100
AcDbLine
 10
-6.800000000000001
 20
13.35146428579474
 30
0.0
 11
-6.799999999999997
 21
11.375
 31
0.0
  0
LINE
  5
1E9
330
1F
100
AcDbEntity
  8
AM_0
100
AcDbLine
 10
-6.799999999999997
 20
11.375
 30
0.0
 11
-13.0
 21
11.375
 31
0.0
  0
LINE
  5
1EA
330
1F
100
AcDbEntity
  8
AM_0
100
AcDbLine
 10
-13.0
 20
11.375
 30
0.0
 11
-13.0
 21
16.505
 31
0.0
  0
LINE
  5
1EB
330
1F
100
AcDbEntity
  8
AM_4
100
AcDbLine
 10
-14.9
 20
13.92264973081037
 30
0.0
 11
-13.0
 21
13.92264973081036
 31
0.0
  0
LINE
  5
1EC
330
1F
100
AcDbEntity
  8
AM_4
100
AcDbLine
 10
-14.9
 20
-13.92264973081037
 30
0.0
 11
-13.0
 21
-13.92264973081036
 31
0.0
  0
LINE
  5
1ED
330
1F
100
AcDbEntity
  8
AM_0
100
AcDbLine
 10
-13.0
 20
-16.505
 30
0.0
 11
-13.0
 21
-11.375
 31
0.0
  0
LINE
  5
1EE
330
1F
100
AcDbEntity
  8
AM_0
100
AcDbLine
 10
-13.0
 20
-11.375
 30
0.0
 11
-6.799999999999994
 21
-11.375
 31
0.0
  0
LINE
  5
1EF
330
1F
100
AcDbEntity
  8
AM_0
100
AcDbLine
 10
-6.799999999999994
 20
-11.375
 30
0.0
 11
-6.799999999999994
 21
-13.35146428579474
 31
0.0
  0
LINE
  5
1F0
330
1F
100
AcDbEntity
  8
AM_0
100
AcDbLine
 10
-3.279178955312243
 20
13.92264973081037
 30
0.0
 11
-3.89
 21
14.795
 31
0.0
  0
LINE
  5
1F1
330
1F
100
AcDbEntity
  8
AM_4
100
AcDbLine
 10
-3.885571281565127
 20
14.78867513459481
 30
0.0
 11
-6.014428718434877
 21
14.78867513459481
 31
0.0
  0
LINE
  5
1F2
330
1F
100
AcDbEntity
  8
AM_4
100
AcDbLine
 10
-3.279178955312243
 20
13.92264973081037
 30
0.0
 11
-6.620821044687754
 21
13.92264973081037
 31
0.0
  0
LINE
  5
1F5
330
1F
100
AcDbEntity
  8
AM_7
100
AcDbLine
 10
-9.450000000000003
 20
0.0
 30
0.0
 11
9.450000000000003
 21
0.0
 31
0.0
  0
LINE
  5
1F6
330
1F
100
AcDbEntity
  8
AM_7
100
AcDbLine
 10
0.0
 20
-9.450000000000003
 30
0.0
 11
0.0
 21
9.450000000000003
 31
0.0
  0
LINE
  5
1F7
330
1F
100
AcDbEntity
  8
AM_7
100
AcDbLine
 10
-10.99749999999999
 20
11.46
 30
0.0
 11
-7.742499999999998
 21
11.46
 31
0.0
  0
LINE
  5
1F8
330
1F
100
AcDbEntity
  8
AM_7
100
AcDbLine
 10
-9.369999999999996
 20
9.832500000000005
 30
0.0
 11
-9.369999999999996
 21
13.0875
 31
0.0
  0
LINE
  5
1F9
330
1F
100
AcDbEntity
  8
AM_7
100
AcDbLine
 10
7.742500000000001
 20
-11.45999999999999
 30
0.0
 11
10.99749999999999
 21
-11.45999999999999
 31
0.0
  0
LINE
  5
1FA
330
1F
100
AcDbEntity
  8
AM_7
100
AcDbLine
 10
9.369999999999997
 20
-13.08749999999999
 30
0.0
 11
9.369999999999997
 21
-9.832499999999994
 31
0.0
  0
LINE
  5
1FB
330
1F
100
AcDbEntity
  8
AM_7
100
AcDbLine
 10
7.7425
 20
11.45999999999999
 30
0.0
 11
10.99750000000002
 21
11.45999999999999
 31
0.0
  0
LINE
  5
1FC
330
1F
100
AcDbEntity
  8
AM_7
100
AcDbLine
 10
9.37000000000001
 20
9.832499999999978
 30
0.0
 11
9.37000000000001
 21
13.0875
 31
0.0
  0
POINT
  5
1FE
330
1F
100
AcDbEntity
  8
2d ConnectionPoints
100
AcDbPoint
 10
-9.9
 20
0.0
 30
0.0
  0
POINT
  5
1FF
330
1F
100
AcDbEntity
  8
2d ConnectionPoints
100
AcDbPoint
 10
0.0
 20
0.0
 30
0.0
  0
POINT
  5
200
330
1F
100
AcDbEntity
  8
2d ConnectionPoints
100
AcDbPoint
 10
9.9
 20
0.0
 30
0.0
  0
POINT
  5
201
330
1F
100
AcDbEntity
  8
2d ConnectionPoints
100
AcDbPoint
 10
0.0
 20
0.0
 30
0.0
  0
ENDSEC
  0
SECTION
  2
OBJECTS
  0
DICTIONARY
  5
C
330
0
100
AcDbDictionary
281
     1
  3
ACAD_DETAILVIEWSTYLE
350
209
  3
ACAD_GROUP
350
D
  3
ACAD_LAYOUT
350
1A
  3
ACAD_MATERIAL
350
43
  3
ACAD_MLEADERSTYLE
350
5B
  3
ACAD_MLINESTYLE
350
17
  3
ACAD_PLOTSETTINGS
350
19
  3
ACAD_PLOTSTYLENAME
350
E
  3
ACAD_SCALELIST
350
47
  3
ACAD_SECTIONVIEWSTYLE
350
20A
  3
ACAD_TABLESTYLE
350
59
  3
ACAD_VISUALSTYLE
350
2A
  3
ACDB_RECOMPOSE_DATA
350
206
  3
AcDbVariableDictionary
350
202
  0
SUN
  5
5D
330
29
100
AcDbSun
 90
        1
290
     0
 63
     7
421
 16777215
 40
1.0
291
     1
 91
  2455826
 92
 54000000
292
     0
 70
     2
 71
   256
280
     1
  0
DICTIONARY
  5
209
102
{ACAD_REACTORS
330
C
102
}
330
C
100
AcDbDictionary
281
     1
  0
DICTIONARY
  5
D
102
{ACAD_REACTORS
330
C
102
}
330
C
100
AcDbDictionary
281
     1
  0
DICTIONARY
  5
1A
102
{ACAD_REACTORS
330
C
102
}
330
C
100
AcDbDictionary
281
     1
  3
Layout1
350
1E
  3
Layout2
350
26
  3
Model
350
22
  0
DICTIONARY
  5
43
102
{ACAD_REACTORS
330
C
102
}
330
C
100
AcDbDictionary
281
     1
  3
ByBlock
350
45
  3
ByLayer
350
44
  3
Global
350
46
  0
DICTIONARY
  5
5B
102
{ACAD_REACTORS
330
C
102
}
330
C
100
AcDbDictionary
281
     1
  3
Standard
350
5C
  0
DICTIONARY
  5
17
102
{ACAD_REACTORS
330
C
102
}
330
C
100
AcDbDictionary
281
     1
  3
Standard
350
18
  0
DICTIONARY
  5
19
102
{ACAD_REACTORS
330
C
102
}
330
C
100
AcDbDictionary
281
     1
  0
ACDBDICTIONARYWDFLT
  5
E
102
{ACAD_REACTORS
330
C
102
}
330
C
100
AcDbDictionary
281
     1
  3
Normal
350
F
100
AcDbDictionaryWithDefault
340
F
  0
DICTIONARY
  5
47
102
{ACAD_REACTORS
330
C
102
}
330
C
100
AcDbDictionary
281
     1
  3
A0
350
48
  3
A1
350
49
  3
A2
350
4A
  3
A3
350
4B
  3
A4
350
4C
  3
A5
350
4D
  3
A6
350
4E
  3
A7
350
4F
  3
A8
350
50
  3
A9
350
51
  3
B0
350
52
  3
B1
350
53
  3
B2
350
54
  3
B3
350
55
  3
B4
350
56
  3
B5
350
57
  3
B6
350
58
  0
DICTIONARY
  5
20A
102
{ACAD_REACTORS
330
C
102
}
330
C
100
AcDbDictionary
281
     1
  0
DICTIONARY
  5
59
102
{ACAD_REACTORS
330
C
102
}
330
C
100
AcDbDictionary
281
     1
  3
Standard
350
5A
  0
DICTIONARY
  5
2A
102
{ACAD_REACTORS
330
C
102
}
330
C
100
AcDbDictionary
281
     1
  3
2dWireframe
350
2F
  3
Basic
350
32
  3
Brighten
350
36
  3
ColorChange
350
3A
  3
Conceptual
350
34
  3
Dim
350
35
  3
EdgeColorOff
350
3D
  3
Facepattern
350
39
  3
Flat
350
2B
  3
FlatWithEdges
350
2C
  3
Gouraud
350
2D
  3
GouraudWithEdges
350
2E
  3
Hidden
350
31
  3
JitterOff
350
3B
  3
Linepattern
350
38
  3
OverhangOff
350
3C
  3
Realistic
350
33
  3
Shaded
350
42
  3
Shaded with edges
350
41
  3
Shades of Gray
350
3E
  3
Sketchy
350
3F
  3
Thicken
350
37
  3
Wireframe
350
30
  3
X-Ray
350
40
  0
XRECORD
  5
206
102
{ACAD_REACTORS
330
C
102
}
330
C
100
AcDbXrecord
280
     1
 90
        1
330
5A
  0
DICTIONARY
  5
202
102
{ACAD_REACTORS
330
C
102
}
330
C
100
AcDbDictionary
281
     1
  3
CANNOSCALE
350
203
  3
CENTEREXE
350
20B
  3
CENTERLTYPEFILE
350
20C
  3
CMLEADERSTYLE
350
208
  3
CTABLESTYLE
350
207
  0
LAYOUT
  5
1E
102
{ACAD_REACTORS
330
1A
102
}
330
1A
100
AcDbPlotSettings
  1

  2
none_device
  4

  6

 40
0.0
 41
0.0
 42
0.0
 43
0.0
 44
0.0
 45
0.0
 46
0.0
 47
0.0
 48
0.0
 49
0.0
140
0.0
141
0.0
142
1.0
143
1.0
 70
   688
 72
     1
 73
     0
 74
     5
  7

 75
    16
 76
     0
 77
     2
 78
   300
147
1.0
148
0.0
149
0.0
100
AcDbLayout
  1
Layout1
 70
     1
 71
     1
 10
0.0
 20
0.0
 11
420.0
 21
297.0
 12
0.0
 22
0.0
 32
0.0
 14
1.000000000000000E+20
 24
1.000000000000000E+20
 34
1.000000000000000E+20
 15
-1.000000000000000E+20
 25
-1.000000000000000E+20
 35
-1.000000000000000E+20
146
0.0
 13
0.0
 23
0.0
 33
0.0
 16
1.0
 26
0.0
 36
0.0
 17
0.0
 27
1.0
 37
0.0
 76
     0
330
1B
  0
LAYOUT
  5
26
102
{ACAD_REACTORS
330
1A
102
}
330
1A
100
AcDbPlotSettings
  1

  2
none_device
  4

  6

 40
0.0
 41
0.0
 42
0.0
 43
0.0
 44
0.0
 45
0.0
 46
0.0
 47
0.0
 48
0.0
 49
0.0
140
0.0
141
0.0
142
1.0
143
1.0
 70
   688
 72
     1
 73
     0
 74
     5
  7

 75
    16
 76
     0
 77
     2
 78
   300
147
1.0
148
0.0
149
0.0
100
AcDbLayout
  1
Layout2
 70
     1
 71
     2
 10
0.0
 20
0.0
 11
0.0
 21
0.0
 12
0.0
 22
0.0
 32
0.0
 14
0.0
 24
0.0
 34
0.0
 15
0.0
 25
0.0
 35
0.0
146
0.0
 13
0.0
 23
0.0
 33
0.0
 16
1.0
 26
0.0
 36
0.0
 17
0.0
 27
1.0
 37
0.0
 76
     0
330
23
  0
LAYOUT
  5
22
102
{ACAD_REACTORS
330
1A
102
}
330
1A
100
AcDbPlotSettings
  1

  2
none_device
  4
Letter_(8.50_x_11.00_Inches)
  6

 40
6.35
 41
6.35
 42
6.35000508
 43
6.35000508
 44
215.9
 45
279.4
 46
0.0
 47
0.0
 48
0.0
 49
0.0
140
0.0
141
0.0
142
1.0
143
1.0
 70
  1712
 72
     1
 73
     0
 74
     0
  7

 75
     0
 76
     0
 77
     2
 78
   300
147
1.0
148
0.0
149
0.0
100
AcDbLayout
  1
Model
 70
     1
 71
     0
 10
0.0
 20
0.0
 11
420.0
 21
297.0
 12
0.0
 22
0.0
 32
0.0
 14
-14.9
 24
-19.75
 34
0.0
 15
23.32237288135593
 25
20.25542372881356
 35
0.0
146
0.0
 13
0.0
 23
0.0
 33
0.0
 16
1.0
 26
0.0
 36
0.0
 17
0.0
 27
1.0
 37
0.0
 76
     0
330
1F
331
29
  0
MATERIAL
  5
45
102
{ACAD_REACTORS
330
43
102
}
330
43
100
AcDbMaterial
  1
ByBlock
 72
     1
 94
      127
  0
MATERIAL
  5
44
102
{ACAD_REACTORS
330
43
102
}
330
43
100
AcDbMaterial
  1
ByLayer
 72
     1
 94
      127
  0
MATERIAL
  5
46
102
{ACAD_REACTORS
330
43
102
}
330
43
100
AcDbMaterial
  1
Global
 72
     1
 94
      127
  0
MLEADERSTYLE
  5
5C
102
{ACAD_REACTORS
330
5B
102
}
330
5B
100
AcDbMLeaderStyle
179
     2
170
     2
171
     1
172
     0
 90
        2
 40
0.0
 41
0.0
173
     1
 91
-1056964608
340
14
 92
       -2
290
     1
 42
2.0
291
     1
 43
8.0
  3
Standard
341
0
 44
4.0
300

342
11
174
     1
178
     6
175
     1
176
     0
 93
-1056964608
 45
4.0
292
     0
297
     0
 46
4.0
343
0
 94
-1056964608
 47
1.0
 49
1.0
140
1.0
293
     1
141
0.0
294
     1
177
     0
142
1.0
295
     0
296
     0
143
3.75
271
     0
272
     9
273
     9
298
     0
  0
MLINESTYLE
  5
18
102
{ACAD_REACTORS
330
17
102
}
330
17
100
AcDbMlineStyle
  2
Standard
 70
     0
  3

 62
   256
 51
90.0
 52
90.0
 71
     2
 49
0.5
 62
   256
  6
BYLAYER
 49
-0.5
 62
   256
  6
BYLAYER
  0
ACDBPLACEHOLDER
  5
F
102
{ACAD_REACTORS
330
E
102
}
330
E
  0
SCALE
  5
48
102
{ACAD_REACTORS
330
47
102
}
330
47
100
AcDbScale
 70
     0
300
1:1
140
1.0
141
1.0
290
     1
  0
SCALE
  5
49
102
{ACAD_REACTORS
330
47
102
}
330
47
100
AcDbScale
 70
     0
300
1:2
140
1.0
141
2.0
290
     0
  0
SCALE
  5
4A
102
{ACAD_REACTORS
330
47
102
}
330
47
100
AcDbScale
 70
     0
300
1:4
140
1.0
141
4.0
290
     0
  0
SCALE
  5
4B
102
{ACAD_REACTORS
330
47
102
}
330
47
100
AcDbScale
 70
     0
300
1:5
140
1.0
141
5.0
290
     0
  0
SCALE
  5
4C
102
{ACAD_REACTORS
330
47
102
}
330
47
100
AcDbScale
 70
     0
300
1:8
140
1.0
141
8.0
290
     0
  0
SCALE
  5
4D
102
{ACAD_REACTORS
330
47
102
}
330
47
100
AcDbScale
 70
     0
300
1:10
140
1.0
141
10.0
290
     0
  0
SCALE
  5
4E
102
{ACAD_REACTORS
330
47
102
}
330
47
100
AcDbScale
 70
     0
300
1:16
140
1.0
141
16.0
290
     0
  0
SCALE
  5
4F
102
{ACAD_REACTORS
330
47
102
}
330
47
100
AcDbScale
 70
     0
300
1:20
140
1.0
141
20.0
290
     0
  0
SCALE
  5
50
102
{ACAD_REACTORS
330
47
102
}
330
47
100
AcDbScale
 70
     0
300
1:30
140
1.0
141
30.0
290
     0
  0
SCALE
  5
51
102
{ACAD_REACTORS
330
47
102
}
330
47
100
AcDbScale
 70
     0
300
1:40
140
1.0
141
40.0
290
     0
  0
SCALE
  5
52
102
{ACAD_REACTORS
330
47
102
}
330
47
100
AcDbScale
 70
     0
300
1:50
140
1.0
141
50.0
290
     0
  0
SCALE
  5
53
102
{ACAD_REACTORS
330
47
102
}
330
47
100
AcDbScale
 70
     0
300
1:100
140
1.0
141
100.0
290
     0
  0
SCALE
  5
54
102
{ACAD_REACTORS
330
47
102
}
330
47
100
AcDbScale
 70
     0
300
2:1
140
2.0
141
1.0
290
     0
  0
SCALE
  5
55
102
{ACAD_REACTORS
330
47
102
}
330
47
100
AcDbScale
 70
     0
300
4:1
140
4.0
141
1.0
290
     0
  0
SCALE
  5
56
102
{ACAD_REACTORS
330
47
102
}
330
47
100
AcDbScale
 70
     0
300
8:1
140
8.0
141
1.0
290
     0
  0
SCALE
  5
57
102
{ACAD_REACTORS
330
47
102
}
330
47
100
AcDbScale
 70
     0
300
10:1
140
10.0
141
1.0
290
     0
  0
SCALE
  5
58
102
{ACAD_REACTORS
330
47
102
}
330
47
100
AcDbScale
 70
     0
300
100:1
140
100.0
141
1.0
290
     0
  0
TABLESTYLE
  5
5A
102
{ACAD_REACTORS
330
59
102
}
102
{ACAD_XDICTIONARY
360
204
102
}
330
59
100
AcDbTableStyle
  3
Standard
 70
     0
 71
     0
 40
0.06
 41
0.06
280
     0
281
     0
  7
Standard
140
4.5
170
     2
 62
     0
 63
   257
283
     0
 90
        4
 91
        0
  1

274
    -2
284
     1
 64
     0
275
    -2
285
     1
 65
     0
276
    -2
286
     1
 66
     0
277
    -2
287
     1
 67
     0
278
    -2
288
     1
 68
     0
279
    -2
289
     1
 69
     0
  7
Standard
140
6.0
170
     5
 62
     0
 63
   257
283
     0
 90
        4
 91
        0
  1

274
    -2
284
     1
 64
     0
275
    -2
285
     1
 65
     0
276
    -2
286
     1
 66
     0
277
    -2
287
     1
 67
     0
278
    -2
288
     1
 68
     0
279
    -2
289
     1
 69
     0
  7
Standard
140
4.5
170
     5
 62
     0
 63
   257
283
     0
 90
        4
 91
        0
  1

274
    -2
284
     1
 64
     0
275
    -2
285
     1
 65
     0
276
    -2
286
     1
 66
     0
277
    -2
287
     1
 67
     0
278
    -2
288
     1
 68
     0
279
    -2
289
     1
 69
     0
  0
VISUALSTYLE
  5
2F
102
{ACAD_REACTORS
330
2A
102
}
330
2A
100
AcDbVisualStyle
  2
2dWireframe
 70
     4
177
     3
291
     0
 70
    58
 90
        0
176
     1
 90
        2
176
     1
 90
        0
176
     1
 90
        0
176
     1
 40
0.6
176
     1
 40
30.0
176
     1
 62
     7
420
 16777215
176
     1
 90
        1
176
     1
 90
        4
176
     1
 62
     7
176
     1
 62
   257
176
     1
 90
        1
176
     1
 90
        1
176
     1
 40
1.0
176
     1
 90
        0
176
     1
 62
   257
176
     1
 40
1.0
176
     1
 90
        1
176
     1
 90
        6
176
     1
 90
        2
176
     1
 62
     7
176
     1
 90
        5
176
     1
 90
        0
176
     1
 90
        0
176
     1
290
     0
176
     1
 90
        1
176
     1
 40
0.0
176
     1
 90
        0
176
     1
290
     1
176
     1
290
     1
176
     1
290
     0
176
     1
290
     0
176
     1
290
     0
176
     1
290
     0
176
     1
290
     0
176
     1
290
     0
176
     1
290
     0
176
     1
 90
       50
176
     1
 40
0.0
176
     1
 40
1.0
176
     1
 90
        0
176
     1
 62
    18
420
        0
176
     1
 90
       50
176
     1
 90
        3
176
     1
 62
     5
420
      255
176
     1
290
     0
176
     1
 90
       50
176
     1
 90
       50
176
     1
 90
       50
176
     1
290
     0
176
     1
 90
       50
176
     1
 62
   256
176
     0
 40
1.0
176
     0
 90
        2
176
     1
  1
strokes_ogs.tif
176
     1
290
     0
176
     1
 40
1.0
176
     1
 40
1.0
176
     1
  0
VISUALSTYLE
  5
32
102
{ACAD_REACTORS
330
2A
102
}
330
2A
100
AcDbVisualStyle
  2
Basic
 70
     7
177
     3
291
     1
 70
    58
 90
        1
176
     1
 90
        0
176
     1
 90
        1
176
     1
 90
        0
176
     1
 40
0.6
176
     1
 40
30.0
176
     1
 62
     7
420
 16777215
176
     1
 90
        0
176
     1
 90
        4
176
     1
 62
     7
176
     1
 62
   257
176
     1
 90
        1
176
     1
 90
        1
176
     1
 40
1.0
176
     1
 90
        8
176
     1
 62
     7
176
     1
 40
1.0
176
     1
 90
        1
176
     1
 90
        6
176
     1
 90
        2
176
     1
 62
     7
176
     1
 90
        5
176
     1
 90
        0
176
     1
 90
        0
176
     1
290
     0
176
     1
 90
        1
176
     1
 40
0.0
176
     1
 90
        0
176
     1
290
     0
176
     1
290
     1
176
     1
290
     1
176
     1
290
     0
176
     1
290
     0
176
     1
290
     0
176
     1
290
     0
176
     1
290
     0
176
     1
290
     0
176
     1
 90
       50
176
     1
 40
0.0
176
     1
 40
1.0
176
     1
 90
        0
176
     1
 62
    18
420
        0
176
     1
 90
       50
176
     1
 90
        3
176
     1
 62
     5
420
      255
176
     1
290
     0
176
     1
 90
       50
176
     1
 90
       50
176
     1
 90
       50
176
     1
290
     0
176
     1
 90
       50
176
     1
 62
   256
176
     0
 40
1.0
176
     0
 90
        2
176
     1
  1
strokes_ogs.tif
176
     1
290
     0
176
     1
 40
1.0
176
     1
 40
1.0
176
     1
  0
VISUALSTYLE
  5
36
102
{ACAD_REACTORS
330
2A
102
}
330
2A
100
AcDbVisualStyle
  2
Brighten
 70
    12
177
     3
291
     1
 70
    58
 90
        2
176
     1
 90
        2
176
     1
 90
        0
176
     1
 90
        0
176
     1
 40
0.6
176
     1
 40
30.0
176
     1
 62
     7
420
 16777215
176
     1
 90
        1
176
     1
 90
        4
176
     1
 62
     7
176
     1
 62
   257
176
     1
 90
        1
176
     1
 90
        1
176
     1
 40
1.0
176
     1
 90
        8
176
     1
 62
     7
176
     1
 40
1.0
176
     1
 90
        1
176
     1
 90
        6
176
     1
 90
        2
176
     1
 62
     7
176
     1
 90
        5
176
     1
 90
        0
176
     1
 90
        0
176
     1
290
     0
176
     1
 90
        1
176
     1
 40
50.0
176
     1
 90
        0
176
     1
290
     0
176
     1
290
     1
176
     1
290
     1
176
     1
290
     0
176
     1
290
     0
176
     1
290
     0
176
     1
290
     0
176
     1
290
     0
176
     1
290
     0
176
     1
 90
       50
176
     1
 40
0.0
176
     1
 40
1.0
176
     1
 90
        0
176
     1
 62
    18
420
        0
176
     1
 90
       50
176
     1
 90
        3
176
     1
 62
     5
420
      255
176
     1
290
     0
176
     1
 90
       50
176
     1
 90
       50
176
     1
 90
       50
176
     1
290
     0
176
     1
 90
       50
176
     1
 62
   256
176
     0
 40
1.0
176
     0
 90
        2
176
     1
  1
strokes_ogs.tif
176
     1
290
     0
176
     1
 40
1.0
176
     1
 40
1.0
176
     1
  0
VISUALSTYLE
  5
3A
102
{ACAD_REACTORS
330
2A
102
}
330
2A
100
AcDbVisualStyle
  2
ColorChange
 70
    16
177
     3
291
     1
 70
    58
 90
        2
176
     1
 90
        2
176
     1
 90
        3
176
     1
 90
        0
176
     1
 40
0.6
176
     1
 40
30.0
176
     1
 62
     8
420
  8421504
176
     1
 90
        1
176
     1
 90
        4
176
     1
 62
     7
176
     1
 62
   257
176
     1
 90
        1
176
     1
 90
        1
176
     1
 40
1.0
176
     1
 90
        8
176
     1
 62
     8
420
  8421504
176
     1
 40
1.0
176
     1
 90
        1
176
     1
 90
        6
176
     1
 90
        2
176
     1
 62
     7
176
     1
 90
        5
176
     1
 90
        0
176
     1
 90
        0
176
     1
290
     0
176
     1
 90
        1
176
     1
 40
0.0
176
     1
 90
        0
176
     1
290
     0
176
     1
290
     1
176
     1
290
     1
176
     1
290
     0
176
     1
290
     0
176
     1
290
     0
176
     1
290
     0
176
     1
290
     0
176
     1
290
     0
176
     1
 90
       50
176
     1
 40
0.0
176
     1
 40
1.0
176
     1
 90
        0
176
     1
 62
    18
420
        0
176
     1
 90
       50
176
     1
 90
        3
176
     1
 62
     5
420
      255
176
     1
290
     0
176
     1
 90
       50
176
     1
 90
       50
176
     1
 90
       50
176
     1
290
     0
176
     1
 90
       50
176
     1
 62
   256
176
     0
 40
1.0
176
     0
 90
        2
176
     1
  1
strokes_ogs.tif
176
     1
290
     0
176
     1
 40
1.0
176
     1
 40
1.0
176
     1
  0
VISUALSTYLE
  5
34
102
{ACAD_REACTORS
330
2A
102
}
330
2A
100
AcDbVisualStyle
  2
Conceptual
 70
     9
177
     3
291
     0
 70
    58
 90
        3
176
     1
 90
        2
176
     1
 90
        0
176
     1
 90
        0
176
     1
 40
0.6
176
     1
 40
30.0
176
     1
 62
     7
420
 16777215
176
     1
 90
        2
176
     1
 90
        2
176
     1
 62
     7
176
     1
 62
   257
176
     1
 90
        1
176
     1
 90
        1
176
     1
 40
179.0
176
     1
 90
        8
176
     1
 62
     7
176
     1
 40
1.0
176
     1
 90
        1
176
     1
 90
        6
176
     1
 90
        2
176
     1
 62
     7
176
     1
 90
        3
176
     1
 90
        0
176
     1
 90
        0
176
     1
290
     0
176
     1
 90
        1
176
     1
 40
0.0
176
     1
 90
        0
176
     1
290
     0
176
     1
290
     1
176
     1
290
     1
176
     1
290
     0
176
     1
290
     0
176
     1
290
     0
176
     1
290
     0
176
     1
290
     0
176
     1
290
     0
176
     1
 90
       50
176
     1
 40
0.0
176
     1
 40
1.0
176
     1
 90
        0
176
     1
 62
    18
420
        0
176
     1
 90
       50
176
     1
 90
        3
176
     1
 62
     5
420
      255
176
     1
290
     0
176
     1
 90
       50
176
     1
 90
       50
176
     1
 90
       50
176
     1
290
     0
176
     1
 90
       50
176
     1
 62
   256
176
     0
 40
1.0
176
     0
 90
        2
176
     1
  1
strokes_ogs.tif
176
     1
290
     0
176
     1
 40
1.0
176
     1
 40
1.0
176
     1
  0
VISUALSTYLE
  5
35
102
{ACAD_REACTORS
330
2A
102
}
330
2A
100
AcDbVisualStyle
  2
Dim
 70
    11
177
     3
291
     1
 70
    58
 90
        2
176
     1
 90
        2
176
     1
 90
        0
176
     1
 90
        0
176
     1
 40
0.6
176
     1
 40
30.0
176
     1
 62
     7
420
 16777215
176
     1
 90
        1
176
     1
 90
        4
176
     1
 62
     7
176
     1
 62
   257
176
     1
 90
        1
176
     1
 90
        1
176
     1
 40
1.0
176
     1
 90
        8
176
     1
 62
     7
176
     1
 40
1.0
176
     1
 90
        1
176
     1
 90
        6
176
     1
 90
        2
176
     1
 62
     7
176
     1
 90
        5
176
     1
 90
        0
176
     1
 90
        0
176
     1
290
     0
176
     1
 90
        1
176
     1
 40
-50.0
176
     1
 90
        0
176
     1
290
     0
176
     1
290
     1
176
     1
290
     1
176
     1
290
     0
176
     1
290
     0
176
     1
290
     0
176
     1
290
     0
176
     1
290
     0
176
     1
290
     0
176
     1
 90
       50
176
     1
 40
0.0
176
     1
 40
1.0
176
     1
 90
        0
176
     1
 62
    18
420
        0
176
     1
 90
       50
176
     1
 90
        3
176
     1
 62
     5
420
      255
176
     1
290
     0
176
     1
 90
       50
176
     1
 90
       50
176
     1
 90
       50
176
     1
290
     0
176
     1
 90
       50
176
     1
 62
   256
176
     0
 40
1.0
176
     0
 90
        2
176
     1
  1
strokes_ogs.tif
176
     1
290
     0
176
     1
 40
1.0
176
     1
 40
1.0
176
     1
  0
VISUALSTYLE
  5
3D
102
{ACAD_REACTORS
330
2A
102
}
330
2A
100
AcDbVisualStyle
  2
EdgeColorOff
 70
    22
177
     3
291
     1
 70
    58
 90
        2
176
     0
 90
        2
176
     0
 90
        0
176
     0
 90
        0
176
     0
 40
0.6
176
     0
 40
30.0
176
     0
 62
     7
420
 16777215
176
     0
 90
        1
176
     0
 90
        4
176
     0
 62
     7
176
     0
 62
   257
176
     0
 90
        1
176
     0
 90
        1
176
     0
 40
1.0
176
     0
 90
        8
176
     2
 62
     7
176
     0
 40
1.0
176
     0
 90
        1
176
     0
 90
        6
176
     0
 90
        2
176
     0
 62
     7
176
     0
 90
        5
176
     0
 90
        0
176
     0
 90
        0
176
     0
290
     0
176
     0
 90
        1
176
     0
 40
0.0
176
     0
 90
        0
176
     0
290
     0
176
     0
290
     1
176
     0
290
     1
176
     0
290
     0
176
     0
290
     0
176
     0
290
     0
176
     0
290
     0
176
     0
290
     0
176
     0
290
     0
176
     0
 90
       50
176
     0
 40
0.0
176
     0
 40
1.0
176
     0
 90
        0
176
     0
 62
    18
420
        0
176
     0
 90
       50
176
     0
 90
        3
176
     0
 62
     5
420
      255
176
     0
290
     0
176
     0
 90
       50
176
     0
 90
       50
176
     0
 90
       50
176
     0
290
     0
176
     0
 90
       50
176
     0
 62
   256
176
     0
 40
1.0
176
     0
 90
        2
176
     0
  1
strokes_ogs.tif
176
     0
290
     0
176
     0
 40
1.0
176
     0
 40
1.0
176
     0
  0
VISUALSTYLE
  5
39
102
{ACAD_REACTORS
330
2A
102
}
330
2A
100
AcDbVisualStyle
  2
Facepattern
 70
    15
177
     3
291
     1
 70
    58
 90
        2
176
     1
 90
        2
176
     1
 90
        0
176
     1
 90
        0
176
     1
 40
0.6
176
     1
 40
30.0
176
     1
 62
     7
420
 16777215
176
     1
 90
        1
176
     1
 90
        4
176
     1
 62
     7
176
     1
 62
   257
176
     1
 90
        1
176
     1
 90
        1
176
     1
 40
1.0
176
     1
 90
        8
176
     1
 62
     7
176
     1
 40
1.0
176
     1
 90
        1
176
     1
 90
        6
176
     1
 90
        2
176
     1
 62
     7
176
     1
 90
        5
176
     1
 90
        0
176
     1
 90
        0
176
     1
290
     0
176
     1
 90
        1
176
     1
 40
0.0
176
     1
 90
        0
176
     1
290
     0
176
     1
290
     1
176
     1
290
     1
176
     1
290
     0
176
     1
290
     0
176
     1
290
     0
176
     1
290
     0
176
     1
290
     0
176
     1
290
     0
176
     1
 90
       50
176
     1
 40
0.0
176
     1
 40
1.0
176
     1
 90
        0
176
     1
 62
    18
420
        0
176
     1
 90
       50
176
     1
 90
        3
176
     1
 62
     5
420
      255
176
     1
290
     0
176
     1
 90
       50
176
     1
 90
       50
176
     1
 90
       50
176
     1
290
     0
176
     1
 90
       50
176
     1
 62
   256
176
     0
 40
1.0
176
     0
 90
        2
176
     1
  1
strokes_ogs.tif
176
     1
290
     0
176
     1
 40
1.0
176
     1
 40
1.0
176
     1
  0
VISUALSTYLE
  5
2B
102
{ACAD_REACTORS
330
2A
102
}
330
2A
100
AcDbVisualStyle
  2
Flat
 70
     0
177
     3
291
     1
 70
    58
 90
        2
176
     1
 90
        1
176
     1
 90
        1
176
     1
 90
        2
176
     1
 40
0.6
176
     1
 40
30.0
176
     1
 62
     7
420
 16777215
176
     1
 90
        0
176
     1
 90
        0
176
     1
 62
     7
176
     1
 62
   257
176
     1
 90
        1
176
     1
 90
        1
176
     1
 40
1.0
176
     1
 90
        8
176
     1
 62
     7
176
     1
 40
1.0
176
     1
 90
        1
176
     1
 90
        6
176
     1
 90
        2
176
     1
 62
     7
176
     1
 90
        5
176
     1
 90
        0
176
     1
 90
        0
176
     1
290
     0
176
     1
 90
       13
176
     1
 40
0.0
176
     1
 90
        0
176
     1
290
     0
176
     1
290
     1
176
     1
290
     1
176
     1
290
     0
176
     1
290
     0
176
     1
290
     0
176
     1
290
     0
176
     1
290
     0
176
     1
290
     0
176
     1
 90
       50
176
     1
 40
0.0
176
     1
 40
1.0
176
     1
 90
        0
176
     1
 62
    18
420
        0
176
     1
 90
       50
176
     1
 90
        3
176
     1
 62
     5
420
      255
176
     1
290
     0
176
     1
 90
       50
176
     1
 90
       50
176
     1
 90
       50
176
     1
290
     0
176
     1
 90
       50
176
     1
 62
   256
176
     0
 40
1.0
176
     0
 90
        2
176
     1
  1
strokes_ogs.tif
176
     1
290
     0
176
     1
 40
1.0
176
     1
 40
1.0
176
     1
  0
VISUALSTYLE
  5
2C
102
{ACAD_REACTORS
330
2A
102
}
330
2A
100
AcDbVisualStyle
  2
FlatWithEdges
 70
     1
177
     3
291
     1
 70
    58
 90
        2
176
     1
 90
        1
176
     1
 90
        1
176
     1
 90
        2
176
     1
 40
0.6
176
     1
 40
30.0
176
     1
 62
     7
420
 16777215
176
     1
 90
        1
176
     1
 90
        0
176
     1
 62
     7
176
     1
 62
   257
176
     1
 90
        1
176
     1
 90
        1
176
     1
 40
1.0
176
     1
 90
        0
176
     1
 62
   257
176
     1
 40
1.0
176
     1
 90
        1
176
     1
 90
        6
176
     1
 90
        2
176
     1
 62
     7
176
     1
 90
        5
176
     1
 90
        0
176
     1
 90
        0
176
     1
290
     0
176
     1
 90
       13
176
     1
 40
0.0
176
     1
 90
        0
176
     1
290
     0
176
     1
290
     1
176
     1
290
     1
176
     1
290
     0
176
     1
290
     0
176
     1
290
     0
176
     1
290
     0
176
     1
290
     0
176
     1
290
     0
176
     1
 90
       50
176
     1
 40
0.0
176
     1
 40
1.0
176
     1
 90
        0
176
     1
 62
    18
420
        0
176
     1
 90
       50
176
     1
 90
        3
176
     1
 62
     5
420
      255
176
     1
290
     0
176
     1
 90
       50
176
     1
 90
       50
176
     1
 90
       50
176
     1
290
     0
176
     1
 90
       50
176
     1
 62
   256
176
     0
 40
1.0
176
     0
 90
        2
176
     1
  1
strokes_ogs.tif
176
     1
290
     0
176
     1
 40
1.0
176
     1
 40
1.0
176
     1
  0
VISUALSTYLE
  5
2D
102
{ACAD_REACTORS
330
2A
102
}
330
2A
100
AcDbVisualStyle
  2
Gouraud
 70
     2
177
     3
291
     1
 70
    58
 90
        2
176
     1
 90
        2
176
     1
 90
        1
176
     1
 90
        2
176
     1
 40
0.6
176
     1
 40
30.0
176
     1
 62
     7
420
 16777215
176
     1
 90
        0
176
     1
 90
        0
176
     1
 62
     7
176
     1
 62
   257
176
     1
 90
        1
176
     1
 90
        1
176
     1
 40
1.0
176
     1
 90
        0
176
     1
 62
     7
176
     1
 40
1.0
176
     1
 90
        1
176
     1
 90
        6
176
     1
 90
        2
176
     1
 62
     7
176
     1
 90
        5
176
     1
 90
        0
176
     1
 90
        0
176
     1
290
     0
176
     1
 90
       13
176
     1
 40
0.0
176
     1
 90
        0
176
     1
290
     0
176
     1
290
     1
176
     1
290
     1
176
     1
290
     0
176
     1
290
     0
176
     1
290
     0
176
     1
290
     0
176
     1
290
     0
176
     1
290
     0
176
     1
 90
       50
176
     1
 40
0.0
176
     1
 40
1.0
176
     1
 90
        0
176
     1
 62
    18
420
        0
176
     1
 90
       50
176
     1
 90
        3
176
     1
 62
     5
420
      255
176
     1
290
     0
176
     1
 90
       50
176
     1
 90
       50
176
     1
 90
       50
176
     1
290
     0
176
     1
 90
       50
176
     1
 62
   256
176
     0
 40
1.0
176
     0
 90
        2
176
     1
  1
strokes_ogs.tif
176
     1
290
     0
176
     1
 40
1.0
176
     1
 40
1.0
176
     1
  0
VISUALSTYLE
  5
2E
102
{ACAD_REACTORS
330
2A
102
}
330
2A
100
AcDbVisualStyle
  2
GouraudWithEdges
 70
     3
177
     3
291
     1
 70
    58
 90
        2
176
     1
 90
        2
176
     1
 90
        1
176
     1
 90
        2
176
     1
 40
0.6
176
     1
 40
30.0
176
     1
 62
     7
420
 16777215
176
     1
 90
        1
176
     1
 90
        0
176
     1
 62
     7
176
     1
 62
   257
176
     1
 90
        1
176
     1
 90
        1
176
     1
 40
1.0
176
     1
 90
        0
176
     1
 62
   257
176
     1
 40
1.0
176
     1
 90
        1
176
     1
 90
        6
176
     1
 90
        2
176
     1
 62
     7
176
     1
 90
        5
176
     1
 90
        0
176
     1
 90
        0
176
     1
290
     0
176
     1
 90
       13
176
     1
 40
0.0
176
     1
 90
        0
176
     1
290
     0
176
     1
290
     1
176
     1
290
     1
176
     1
290
     0
176
     1
290
     0
176
     1
290
     0
176
     1
290
     0
176
     1
290
     0
176
     1
290
     0
176
     1
 90
       50
176
     1
 40
0.0
176
     1
 40
1.0
176
     1
 90
        0
176
     1
 62
    18
420
        0
176
     1
 90
       50
176
     1
 90
        3
176
     1
 62
     5
420
      255
176
     1
290
     0
176
     1
 90
       50
176
     1
 90
       50
176
     1
 90
       50
176
     1
290
     0
176
     1
 90
       50
176
     1
 62
   256
176
     0
 40
1.0
176
     0
 90
        2
176
     1
  1
strokes_ogs.tif
176
     1
290
     0
176
     1
 40
1.0
176
     1
 40
1.0
176
     1
  0
VISUALSTYLE
  5
31
102
{ACAD_REACTORS
330
2A
102
}
330
2A
100
AcDbVisualStyle
  2
Hidden
 70
     6
177
     3
291
     0
 70
    58
 90
        1
176
     1
 90
        2
176
     1
 90
        2
176
     1
 90
        0
176
     1
 40
0.6
176
     1
 40
30.0
176
     1
 62
     7
420
 16777215
176
     1
 90
        2
176
     1
 90
        2
176
     1
 62
     7
176
     1
 62
   257
176
     1
 90
        2
176
     1
 90
        1
176
     1
 40
40.0
176
     1
 90
        0
176
     1
 62
   257
176
     1
 40
1.0
176
     1
 90
        1
176
     1
 90
        6
176
     1
 90
        2
176
     1
 62
     7
176
     1
 90
        3
176
     1
 90
        0
176
     1
 90
        0
176
     1
290
     0
176
     1
 90
        1
176
     1
 40
0.0
176
     1
 90
        0
176
     1
290
     0
176
     1
290
     1
176
     1
290
     1
176
     1
290
     0
176
     1
290
     0
176
     1
290
     0
176
     1
290
     0
176
     1
290
     0
176
     1
290
     0
176
     1
 90
       50
176
     1
 40
0.0
176
     1
 40
1.0
176
     1
 90
        0
176
     1
 62
    18
420
        0
176
     1
 90
       50
176
     1
 90
        3
176
     1
 62
     5
420
      255
176
     1
290
     0
176
     1
 90
       50
176
     1
 90
       50
176
     1
 90
       50
176
     1
290
     0
176
     1
 90
       50
176
     1
 62
   256
176
     0
 40
1.0
176
     0
 90
        2
176
     1
  1
strokes_ogs.tif
176
     1
290
     0
176
     1
 40
1.0
176
     1
 40
1.0
176
     1
  0
VISUALSTYLE
  5
3B
102
{ACAD_REACTORS
330
2A
102
}
330
2A
100
AcDbVisualStyle
  2
JitterOff
 70
    20
177
     3
291
     1
 70
    58
 90
        2
176
     0
 90
        2
176
     0
 90
        0
176
     0
 90
        0
176
     0
 40
0.6
176
     0
 40
30.0
176
     0
 62
     7
420
 16777215
176
     0
 90
        1
176
     0
 90
        4
176
     0
 62
     7
176
     0
 62
   257
176
     0
 90
        1
176
     0
 90
        1
176
     0
 40
1.0
176
     0
 90
       10
176
     2
 62
     7
176
     0
 40
1.0
176
     0
 90
        1
176
     0
 90
        6
176
     0
 90
        2
176
     0
 62
     7
176
     0
 90
        5
176
     0
 90
        0
176
     0
 90
        0
176
     0
290
     0
176
     0
 90
        1
176
     0
 40
0.0
176
     0
 90
        0
176
     0
290
     0
176
     0
290
     1
176
     0
290
     1
176
     0
290
     0
176
     0
290
     0
176
     0
290
     0
176
     0
290
     0
176
     0
290
     0
176
     0
290
     0
176
     0
 90
       50
176
     0
 40
0.0
176
     0
 40
1.0
176
     0
 90
        0
176
     0
 62
    18
420
        0
176
     0
 90
       50
176
     0
 90
        3
176
     0
 62
     5
420
      255
176
     0
290
     0
176
     0
 90
       50
176
     0
 90
       50
176
     0
 90
       50
176
     0
290
     0
176
     0
 90
       50
176
     0
 62
   256
176
     0
 40
1.0
176
     0
 90
        2
176
     0
  1
strokes_ogs.tif
176
     0
290
     0
176
     0
 40
1.0
176
     0
 40
1.0
176
     0
  0
VISUALSTYLE
  5
38
102
{ACAD_REACTORS
330
2A
102
}
330
2A
100
AcDbVisualStyle
  2
Linepattern
 70
    14
177
     3
291
     1
 70
    58
 90
        2
176
     1
 90
        2
176
     1
 90
        0
176
     1
 90
        0
176
     1
 40
0.6
176
     1
 40
30.0
176
     1
 62
     7
420
 16777215
176
     1
 90
        1
176
     1
 90
        4
176
     1
 62
     7
176
     1
 62
   257
176
     1
 90
        7
176
     1
 90
        7
176
     1
 40
1.0
176
     1
 90
        8
176
     1
 62
     7
176
     1
 40
1.0
176
     1
 90
        1
176
     1
 90
        6
176
     1
 90
        2
176
     1
 62
     7
176
     1
 90
        5
176
     1
 90
        0
176
     1
 90
        0
176
     1
290
     0
176
     1
 90
        1
176
     1
 40
0.0
176
     1
 90
        0
176
     1
290
     0
176
     1
290
     1
176
     1
290
     1
176
     1
290
     0
176
     1
290
     0
176
     1
290
     0
176
     1
290
     0
176
     1
290
     0
176
     1
290
     0
176
     1
 90
       50
176
     1
 40
0.0
176
     1
 40
1.0
176
     1
 90
        0
176
     1
 62
    18
420
        0
176
     1
 90
       50
176
     1
 90
        3
176
     1
 62
     5
420
      255
176
     1
290
     0
176
     1
 90
       50
176
     1
 90
       50
176
     1
 90
       50
176
     1
290
     0
176
     1
 90
       50
176
     1
 62
   256
176
     0
 40
1.0
176
     0
 90
        2
176
     1
  1
strokes_ogs.tif
176
     1
290
     0
176
     1
 40
1.0
176
     1
 40
1.0
176
     1
  0
VISUALSTYLE
  5
3C
102
{ACAD_REACTORS
330
2A
102
}
330
2A
100
AcDbVisualStyle
  2
OverhangOff
 70
    21
177
     3
291
     1
 70
    58
 90
        2
176
     0
 90
        2
176
     0
 90
        0
176
     0
 90
        0
176
     0
 40
0.6
176
     0
 40
30.0
176
     0
 62
     7
420
 16777215
176
     0
 90
        1
176
     0
 90
        4
176
     0
 62
     7
176
     0
 62
   257
176
     0
 90
        1
176
     0
 90
        1
176
     0
 40
1.0
176
     0
 90
        9
176
     2
 62
     7
176
     0
 40
1.0
176
     0
 90
        1
176
     0
 90
        6
176
     0
 90
        2
176
     0
 62
     7
176
     0
 90
        5
176
     0
 90
        0
176
     0
 90
        0
176
     0
290
     0
176
     0
 90
        1
176
     0
 40
0.0
176
     0
 90
        0
176
     0
290
     0
176
     0
290
     1
176
     0
290
     1
176
     0
290
     0
176
     0
290
     0
176
     0
290
     0
176
     0
290
     0
176
     0
290
     0
176
     0
290
     0
176
     0
 90
       50
176
     0
 40
0.0
176
     0
 40
1.0
176
     0
 90
        0
176
     0
 62
    18
420
        0
176
     0
 90
       50
176
     0
 90
        3
176
     0
 62
     5
420
      255
176
     0
290
     0
176
     0
 90
       50
176
     0
 90
       50
176
     0
 90
       50
176
     0
290
     0
176
     0
 90
       50
176
     0
 62
   256
176
     0
 40
1.0
176
     0
 90
        2
176
     0
  1
strokes_ogs.tif
176
     0
290
     0
176
     0
 40
1.0
176
     0
 40
1.0
176
     0
  0
VISUALSTYLE
  5
33
102
{ACAD_REACTORS
330
2A
102
}
330
2A
100
AcDbVisualStyle
  2
Realistic
 70
     8
177
     3
291
     0
 70
    58
 90
        2
176
     1
 90
        3
176
     1
 90
        0
176
     1
 90
        2
176
     1
 40
0.6
176
     1
 40
30.0
176
     1
 62
     7
420
 16777215
176
     1
 90
        0
176
     1
 90
        0
176
     1
 62
     7
176
     1
 62
   257
176
     1
 90
        1
176
     1
 90
        1
176
     1
 40
1.0
176
     1
 90
        8
176
     1
 62
   257
176
     1
 40
1.0
176
     1
 90
        1
176
     1
 90
        6
176
     1
 90
        2
176
     1
 62
     7
176
     1
 90
        3
176
     1
 90
        0
176
     1
 90
        0
176
     1
290
     0
176
     1
 90
       13
176
     1
 40
0.0
176
     1
 90
        0
176
     1
290
     0
176
     1
290
     1
176
     1
290
     1
176
     1
290
     0
176
     1
290
     0
176
     1
290
     0
176
     1
290
     0
176
     1
290
     0
176
     1
290
     0
176
     1
 90
       50
176
     1
 40
0.0
176
     1
 40
1.0
176
     1
 90
        0
176
     1
 62
    18
420
        0
176
     1
 90
       50
176
     1
 90
        3
176
     1
 62
     5
420
      255
176
     1
290
     0
176
     1
 90
       50
176
     1
 90
       50
176
     1
 90
       50
176
     1
290
     0
176
     1
 90
       50
176
     1
 62
   256
176
     0
 40
1.0
176
     0
 90
        2
176
     1
  1
strokes_ogs.tif
176
     1
290
     0
176
     1
 40
1.0
176
     1
 40
1.0
176
     1
  0
VISUALSTYLE
  5
42
102
{ACAD_REACTORS
330
2A
102
}
330
2A
100
AcDbVisualStyle
  2
Shaded
 70
    27
177
     3
291
     0
 70
    58
 90
        2
176
     1
 90
        2
176
     1
 90
        1
176
     1
 90
        2
176
     1
 40
0.6
176
     1
 40
30.0
176
     1
 62
     7
420
 16777215
176
     1
 90
        0
176
     1
 90
        4
176
     1
 62
     7
176
     1
 62
   257
176
     1
 90
        1
176
     1
 90
        1
176
     1
 40
1.0
176
     1
 90
        8
176
     1
 62
   257
176
     1
 40
1.0
176
     1
 90
        1
176
     1
 90
        6
176
     1
 90
        2
176
     1
 62
     8
420
  7895160
176
     1
 90
        3
176
     1
 90
        0
176
     1
 90
        0
176
     1
290
     0
176
     1
 90
        5
176
     1
 40
0.0
176
     1
 90
        0
176
     1
290
     0
176
     1
290
     1
176
     1
290
     1
176
     1
290
     0
176
     1
290
     0
176
     1
290
     0
176
     1
290
     0
176
     1
290
     0
176
     1
290
     0
176
     1
 90
       50
176
     1
 40
0.0
176
     1
 40
1.0
176
     1
 90
        0
176
     1
 62
    18
420
        0
176
     1
 90
       50
176
     1
 90
        3
176
     1
 62
     5
420
      255
176
     1
290
     0
176
     1
 90
       50
176
     1
 90
       50
176
     1
 90
       50
176
     1
290
     0
176
     1
 90
       50
176
     1
 62
   256
176
     0
 40
1.0
176
     0
 90
        2
176
     1
  1
strokes_ogs.tif
176
     1
290
     0
176
     1
 40
1.0
176
     1
 40
1.0
176
     1
  0
VISUALSTYLE
  5
41
102
{ACAD_REACTORS
330
2A
102
}
330
2A
100
AcDbVisualStyle
  2
Shaded with edges
 70
    26
177
     3
291
     0
 70
    58
 90
        2
176
     1
 90
        2
176
     1
 90
        1
176
     1
 90
        2
176
     1
 40
0.6
176
     1
 40
30.0
176
     1
 62
     7
420
 16777215
176
     1
 90
        1
176
     1
 90
       10
176
     1
 62
     7
176
     1
 62
   257
176
     1
 90
        2
176
     1
 90
        1
176
     1
 40
1.0
176
     1
 90
        8
176
     1
 62
   257
176
     1
 40
1.0
176
     1
 90
        1
176
     1
 90
        6
176
     1
 90
        2
176
     1
 62
     7
176
     1
 90
        3
176
     1
 90
        0
176
     1
 90
        0
176
     1
290
     0
176
     1
 90
        5
176
     1
 40
0.0
176
     1
 90
        0
176
     1
290
     0
176
     1
290
     1
176
     1
290
     1
176
     1
290
     0
176
     1
290
     0
176
     1
290
     0
176
     1
290
     0
176
     1
290
     0
176
     1
290
     0
176
     1
 90
       50
176
     1
 40
0.0
176
     1
 40
1.0
176
     1
 90
        0
176
     1
 62
    18
420
        0
176
     1
 90
       50
176
     1
 90
        3
176
     1
 62
     5
420
      255
176
     1
290
     0
176
     1
 90
       50
176
     1
 90
       50
176
     1
 90
       50
176
     1
290
     0
176
     1
 90
       50
176
     1
 62
   256
176
     0
 40
1.0
176
     0
 90
        2
176
     1
  1
strokes_ogs.tif
176
     1
290
     0
176
     1
 40
1.0
176
     1
 40
1.0
176
     1
  0
VISUALSTYLE
  5
3E
102
{ACAD_REACTORS
330
2A
102
}
330
2A
100
AcDbVisualStyle
  2
Shades of Gray
 70
    23
177
     3
291
     0
 70
    58
 90
        2
176
     1
 90
        2
176
     1
 90
        3
176
     1
 90
        0
176
     1
 40
0.6
176
     1
 40
30.0
176
     1
 62
     7
420
 16777215
176
     1
 90
        2
176
     1
 90
        2
176
     1
 62
     7
176
     1
 62
     7
176
     1
 90
        1
176
     1
 90
        1
176
     1
 40
40.0
176
     1
 90
        8
176
     1
 62
     7
176
     1
 40
1.0
176
     1
 90
        1
176
     1
 90
        6
176
     1
 90
        2
176
     1
 62
     7
176
     1
 90
        3
176
     1
 90
        0
176
     1
 90
        0
176
     1
290
     0
176
     1
 90
        1
176
     1
 40
0.0
176
     1
 90
        0
176
     1
290
     0
176
     1
290
     1
176
     1
290
     1
176
     1
290
     0
176
     1
290
     0
176
     1
290
     0
176
     1
290
     0
176
     1
290
     0
176
     1
290
     0
176
     1
 90
       50
176
     1
 40
0.0
176
     1
 40
1.0
176
     1
 90
        0
176
     1
 62
    18
420
        0
176
     1
 90
       50
176
     1
 90
        3
176
     1
 62
     5
420
      255
176
     1
290
     0
176
     1
 90
       50
176
     1
 90
       50
176
     1
 90
       50
176
     1
290
     0
176
     1
 90
       50
176
     1
 62
   256
176
     0
 40
1.0
176
     0
 90
        2
176
     1
  1
strokes_ogs.tif
176
     1
290
     0
176
     1
 40
1.0
176
     1
 40
1.0
176
     1
  0
VISUALSTYLE
  5
3F
102
{ACAD_REACTORS
330
2A
102
}
330
2A
100
AcDbVisualStyle
  2
Sketchy
 70
    24
177
     3
291
     0
 70
    58
 90
        1
176
     1
 90
        2
176
     1
 90
        2
176
     1
 90
        0
176
     1
 40
0.6
176
     1
 40
30.0
176
     1
 62
     7
420
 16777215
176
     1
 90
        2
176
     1
 90
        2
176
     1
 62
     7
176
     1
 62
     7
176
     1
 90
        1
176
     1
 90
        1
176
     1
 40
40.0
176
     1
 90
       11
176
     1
 62
     7
176
     1
 40
1.0
176
     1
 90
        1
176
     1
 90
        6
176
     1
 90
        2
176
     1
 62
     7
176
     1
 90
        6
176
     1
 90
        0
176
     1
 90
        0
176
     1
290
     0
176
     1
 90
        1
176
     1
 40
0.0
176
     1
 90
        0
176
     1
290
     0
176
     1
290
     1
176
     1
290
     1
176
     1
290
     0
176
     1
290
     0
176
     1
290
     0
176
     1
290
     0
176
     1
290
     0
176
     1
290
     0
176
     1
 90
       50
176
     1
 40
0.0
176
     1
 40
1.0
176
     1
 90
        0
176
     1
 62
    18
420
        0
176
     1
 90
       50
176
     1
 90
        3
176
     1
 62
     5
420
      255
176
     1
290
     0
176
     1
 90
       50
176
     1
 90
       50
176
     1
 90
       50
176
     1
290
     0
176
     1
 90
       50
176
     1
 62
   256
176
     0
 40
1.0
176
     0
 90
        2
176
     1
  1
strokes_ogs.tif
176
     1
290
     0
176
     1
 40
1.0
176
     1
 40
1.0
176
     1
  0
VISUALSTYLE
  5
37
102
{ACAD_REACTORS
330
2A
102
}
330
2A
100
AcDbVisualStyle
  2
Thicken
 70
    13
177
     3
291
     1
 70
    58
 90
        2
176
     1
 90
        2
176
     1
 90
        0
176
     1
 90
        0
176
     1
 40
0.6
176
     1
 40
30.0
176
     1
 62
     7
420
 16777215
176
     1
 90
        1
176
     1
 90
        4
176
     1
 62
     7
176
     1
 62
   257
176
     1
 90
        1
176
     1
 90
        1
176
     1
 40
1.0
176
     1
 90
       12
176
     1
 62
     7
176
     1
 40
1.0
176
     1
 90
        1
176
     1
 90
        6
176
     1
 90
        2
176
     1
 62
     7
176
     1
 90
        5
176
     1
 90
        0
176
     1
 90
        0
176
     1
290
     0
176
     1
 90
        1
176
     1
 40
0.0
176
     1
 90
        0
176
     1
290
     0
176
     1
290
     1
176
     1
290
     1
176
     1
290
     0
176
     1
290
     0
176
     1
290
     0
176
     1
290
     0
176
     1
290
     0
176
     1
290
     0
176
     1
 90
       50
176
     1
 40
0.0
176
     1
 40
1.0
176
     1
 90
        0
176
     1
 62
    18
420
        0
176
     1
 90
       50
176
     1
 90
        3
176
     1
 62
     5
420
      255
176
     1
290
     0
176
     1
 90
       50
176
     1
 90
       50
176
     1
 90
       50
176
     1
290
     0
176
     1
 90
       50
176
     1
 62
   256
176
     0
 40
1.0
176
     0
 90
        2
176
     1
  1
strokes_ogs.tif
176
     1
290
     0
176
     1
 40
1.0
176
     1
 40
1.0
176
     1
  0
VISUALSTYLE
  5
30
102
{ACAD_REACTORS
330
2A
102
}
330
2A
100
AcDbVisualStyle
  2
Wireframe
 70
     5
177
     3
291
     0
 70
    58
 90
        0
176
     1
 90
        2
176
     1
 90
        0
176
     1
 90
        0
176
     1
 40
0.6
176
     1
 40
30.0
176
     1
 62
     7
420
 16777215
176
     1
 90
        1
176
     1
 90
        4
176
     1
 62
     7
176
     1
 62
   257
176
     1
 90
        1
176
     1
 90
        1
176
     1
 40
1.0
176
     1
 90
        0
176
     1
 62
   257
176
     1
 40
1.0
176
     1
 90
        1
176
     1
 90
        6
176
     1
 90
        2
176
     1
 62
     7
176
     1
 90
        3
176
     1
 90
        0
176
     1
 90
        0
176
     1
290
     0
176
     1
 90
        1
176
     1
 40
0.0
176
     1
 90
        0
176
     1
290
     0
176
     1
290
     1
176
     1
290
     1
176
     1
290
     0
176
     1
290
     0
176
     1
290
     0
176
     1
290
     0
176
     1
290
     0
176
     1
290
     0
176
     1
 90
       50
176
     1
 40
0.0
176
     1
 40
1.0
176
     1
 90
        0
176
     1
 62
    18
420
        0
176
     1
 90
       50
176
     1
 90
        3
176
     1
 62
     5
420
      255
176
     1
290
     0
176
     1
 90
       50
176
     1
 90
       50
176
     1
 90
       50
176
     1
290
     0
176
     1
 90
       50
176
     1
 62
   256
176
     0
 40
1.0
176
     0
 90
        2
176
     1
  1
strokes_ogs.tif
176
     1
290
     0
176
     1
 40
1.0
176
     1
 40
1.0
176
     1
  0
VISUALSTYLE
  5
40
102
{ACAD_REACTORS
330
2A
102
}
330
2A
100
AcDbVisualStyle
  2
X-Ray
 70
    25
177
     3
291
     0
 70
    58
 90
        2
176
     1
 90
        2
176
     1
 90
        1
176
     1
 90
        1
176
     1
 40
0.5
176
     1
 40
30.0
176
     1
 62
     7
420
 16777215
176
     1
 90
        1
176
     1
 90
        0
176
     1
 62
     7
176
     1
 62
   257
176
     1
 90
        1
176
     1
 90
        1
176
     1
 40
1.0
176
     1
 90
        8
176
     1
 62
     7
176
     1
 40
1.0
176
     1
 90
        1
176
     1
 90
        6
176
     1
 90
        2
176
     1
 62
     7
176
     1
 90
        3
176
     1
 90
        0
176
     1
 90
        0
176
     1
290
     0
176
     1
 90
       13
176
     1
 40
0.0
176
     1
 90
        0
176
     1
290
     0
176
     1
290
     1
176
     1
290
     1
176
     1
290
     0
176
     1
290
     0
176
     1
290
     0
176
     1
290
     0
176
     1
290
     0
176
     1
290
     0
176
     1
 90
       50
176
     1
 40
0.0
176
     1
 40
1.0
176
     1
 90
        0
176
     1
 62
    18
420
        0
176
     1
 90
       50
176
     1
 90
        3
176
     1
 62
     5
420
      255
176
     1
290
     0
176
     1
 90
       50
176
     1
 90
       50
176
     1
 90
       50
176
     1
290
     0
176
     1
 90
       50
176
     1
 62
   256
176
     0
 40
1.0
176
     0
 90
        2
176
     1
  1
strokes_ogs.tif
176
     1
290
     0
176
     1
 40
1.0
176
     1
 40
1.0
176
     1
  0
DICTIONARYVAR
  5
203
102
{ACAD_REACTORS
330
202
102
}
330
202
100
DictionaryVariables
280
     0
  1
1:1
  0
DICTIONARYVAR
  5
20B
102
{ACAD_REACTORS
330
202
102
}
330
202
100
DictionaryVariables
280
     0
  1
3.500000
  0
DICTIONARYVAR
  5
20C
102
{ACAD_REACTORS
330
202
102
}
330
202
100
DictionaryVariables
280
     0
  1
acadiso.lin
  0
DICTIONARYVAR
  5
208
102
{ACAD_REACTORS
330
202
102
}
330
202
100
DictionaryVariables
280
     0
  1
Standard
  0
DICTIONARYVAR
  5
207
102
{ACAD_REACTORS
330
202
102
}
330
202
100
DictionaryVariables
280
     0
  1
Standard
  0
DICTIONARY
  5
204
330
5A
100
AcDbDictionary
280
     1
281
     1
  3
ACAD_ROUNDTRIP_2008_TABLESTYLE_CELLSTYLEMAP
360
205
  0
CELLSTYLEMAP
  5
205
102
{ACAD_REACTORS
330
204
102
}
330
204
100
AcDbCellStyleMap
 90
        3
300
CELLSTYLE
  1
TABLEFORMAT_BEGIN
 90
        5
170
     1
 91
        0
 92
    32768
 62
   257
 93
        1
300
CONTENTFORMAT
  1
CONTENTFORMAT_BEGIN
 90
        0
 91
        0
 92
        4
 93
        0
300

 40
0.0
140
1.0
 94
        5
 62
     0
340
11
144
6.0
309
CONTENTFORMAT_END
171
     1
301
MARGIN
  1
CELLMARGIN_BEGIN
 40
1.5
 40
1.5
 40
1.5
 40
1.5
 40
1.5
 40
1.5
309
CELLMARGIN_END
 94
        6
 95
        1
302
GRIDFORMAT
  1
GRIDFORMAT_BEGIN
 90
        0
 91
        1
 62
     0
 92
       -2
340
14
 93
        0
 40
0.045
309
GRIDFORMAT_END
 95
        2
302
GRIDFORMAT
  1
GRIDFORMAT_BEGIN
 90
        0
 91
        1
 62
     0
 92
       -2
340
14
 93
        0
 40
0.045
309
GRIDFORMAT_END
 95
        4
302
GRIDFORMAT
  1
GRIDFORMAT_BEGIN
 90
        0
 91
        1
 62
     0
 92
       -2
340
14
 93
        0
 40
0.045
309
GRIDFORMAT_END
 95
        8
302
GRIDFORMAT
  1
GRIDFORMAT_BEGIN
 90
        0
 91
        1
 62
     0
 92
       -2
340
14
 93
        0
 40
0.045
309
GRIDFORMAT_END
 95
       16
302
GRIDFORMAT
  1
GRIDFORMAT_BEGIN
 90
        0
 91
        1
 62
     0
 92
       -2
340
14
 93
        0
 40
0.045
309
GRIDFORMAT_END
 95
       32
302
GRIDFORMAT
  1
GRIDFORMAT_BEGIN
 90
        0
 91
        1
 62
     0
 92
       -2
340
14
 93
        0
 40
0.045
309
GRIDFORMAT_END
309
TABLEFORMAT_END
  1
CELLSTYLE_BEGIN
 90
        1
 91
        1
300
_TITLE
309
CELLSTYLE_END
300
CELLSTYLE
  1
TABLEFORMAT_BEGIN
 90
        5
170
     1
 91
        0
 92
        0
 62
   257
 93
        1
300
CONTENTFORMAT
  1
CONTENTFORMAT_BEGIN
 90
        0
 91
        0
 92
        4
 93
        0
300

 40
0.0
140
1.0
 94
        5
 62
     0
340
11
144
4.5
309
CONTENTFORMAT_END
171
     1
301
MARGIN
  1
CELLMARGIN_BEGIN
 40
1.5
 40
1.5
 40
1.5
 40
1.5
 40
1.5
 40
1.5
309
CELLMARGIN_END
 94
        6
 95
        1
302
GRIDFORMAT
  1
GRIDFORMAT_BEGIN
 90
        0
 91
        1
 62
     0
 92
       -2
340
14
 93
        0
 40
0.045
309
GRIDFORMAT_END
 95
        2
302
GRIDFORMAT
  1
GRIDFORMAT_BEGIN
 90
        0
 91
        1
 62
     0
 92
       -2
340
14
 93
        0
 40
0.045
309
GRIDFORMAT_END
 95
        4
302
GRIDFORMAT
  1
GRIDFORMAT_BEGIN
 90
        0
 91
        1
 62
     0
 92
       -2
340
14
 93
        0
 40
0.045
309
GRIDFORMAT_END
 95
        8
302
GRIDFORMAT
  1
GRIDFORMAT_BEGIN
 90
        0
 91
        1
 62
     0
 92
       -2
340
14
 93
        0
 40
0.045
309
GRIDFORMAT_END
 95
       16
302
GRIDFORMAT
  1
GRIDFORMAT_BEGIN
 90
        0
 91
        1
 62
     0
 92
       -2
340
14
 93
        0
 40
0.045
309
GRIDFORMAT_END
 95
       32
302
GRIDFORMAT
  1
GRIDFORMAT_BEGIN
 90
        0
 91
        1
 62
     0
 92
       -2
340
14
 93
        0
 40
0.045
309
GRIDFORMAT_END
309
TABLEFORMAT_END
  1
CELLSTYLE_BEGIN
 90
        2
 91
        1
300
_HEADER
309
CELLSTYLE_END
300
CELLSTYLE
  1
TABLEFORMAT_BEGIN
 90
        5
170
     1
 91
        0
 92
        0
 62
   257
 93
        1
300
CONTENTFORMAT
  1
CONTENTFORMAT_BEGIN
 90
        0
 91
        0
 92
        4
 93
        0
300

 40
0.0
140
1.0
 94
        2
 62
     0
340
11
144
4.5
309
CONTENTFORMAT_END
171
     1
301
MARGIN
  1
CELLMARGIN_BEGIN
 40
1.5
 40
1.5
 40
1.5
 40
1.5
 40
1.5
 40
1.5
309
CELLMARGIN_END
 94
        6
 95
        1
302
GRIDFORMAT
  1
GRIDFORMAT_BEGIN
 90
        0
 91
        1
 62
     0
 92
       -2
340
14
 93
        0
 40
0.045
309
GRIDFORMAT_END
 95
        2
302
GRIDFORMAT
  1
GRIDFORMAT_BEGIN
 90
        0
 91
        1
 62
     0
 92
       -2
340
14
 93
        0
 40
0.045
309
GRIDFORMAT_END
 95
        4
302
GRIDFORMAT
  1
GRIDFORMAT_BEGIN
 90
        0
 91
        1
 62
     0
 92
       -2
340
14
 93
        0
 40
0.045
309
GRIDFORMAT_END
 95
        8
302
GRIDFORMAT
  1
GRIDFORMAT_BEGIN
 90
        0
 91
        1
 62
     0
 92
       -2
340
14
 93
        0
 40
0.045
309
GRIDFORMAT_END
 95
       16
302
GRIDFORMAT
  1
GRIDFORMAT_BEGIN
 90
        0
 91
        1
 62
     0
 92
       -2
340
14
 93
        0
 40
0.045
309
GRIDFORMAT_END
 95
       32
302
GRIDFORMAT
  1
GRIDFORMAT_BEGIN
 90
        0
 91
        1
 62
     0
 92
       -2
340
14
 93
        0
 40
0.045
309
GRIDFORMAT_END
309
TABLEFORMAT_END
  1
CELLSTYLE_BEGIN
 90
        3
 91
        2
300
_DATA
309
CELLSTYLE_END
  0
ENDSEC
  0
EOF
